  0
SECTION
  2
HEADER
  9
$ACADVER
  1
AC1009
  9
$LIMMIN
 10
-121.3192757
 20
    -93.51
  9
$LIMMAX
 10
121.3192757
 20
     93.51
  9
$EXTMIN
 10
-110.2811597
 20
       -85
  9
$EXTMAX
 10
110.2811597
 20
        85
  0
ENDSEC
  0
SECTION
  2
TABLES
  0
TABLE
  2
LTYPE
 70
     8
  0
LTYPE
  2
CONTINUOUS
 70
    64
  3
Solid line
 72
    65
 73
     0
 40
           0
  0
LTYPE
  2
LTYPE_1
 70
    64
  3
...................
 72
    65
 73
     2
 40
    0.758245
 49
           0
 49
   -0.758245
  0
LTYPE
  2
LTYPE_2
 70
    64
  3
. . . . . . . . . .
 72
    65
 73
     2
 40
     1.51649
 49
           0
 49
    -1.51649
  0
LTYPE
  2
LTYPE_3
 70
    64
  3
-   -   -   -   -
 72
    65
 73
     2
 40
     6.06596
 49
     1.51649
 49
    -4.54947
  0
LTYPE
  2
LTYPE_4
 70
    64
  3
--  --  --  --  --
 72
    65
 73
     2
 40
     6.06596
 49
     3.03298
 49
    -3.03298
  0
LTYPE
  2
LTYPE_5
 70
    64
  3
-- . -- . -- . --
 72
    65
 73
     4
 40
     6.06596
 49
     3.03298
 49
    -1.51649
 49
           0
 49
    -1.51649
  0
LTYPE
  2
LTYPE_6
 70
    64
  3
---- . ---- . ----
 72
    65
 73
     4
 40
     9.09895
 49
     6.06596
 49
    -1.51649
 49
           0
 49
    -1.51649
  0
LTYPE
  2
LTYPE_7
 70
    64
  3
--- . --- . --- . ---
 72
    65
 73
     4
 40
     9.09895
 49
     4.54947
 49
    -1.51649
 49
     1.51649
 49
    -1.51649
  0
ENDTAB
  0
TABLE
  2
LAYER
 70
     5
  0
LAYER
  2
0
 70
     0
 62
     7
  6
CONTINUOUS
  0
LAYER
  2
Strassen_Wege
 70
     0
 62
     2
  6
CONTINUOUS
  0
LAYER
  2
Geb_ude
 70
     0
 62
     7
  6
CONTINUOUS
  0
LAYER
  2
Perimeter
 70
     0
 62
     1
  6
CONTINUOUS
  0
LAYER
  2
Meterkurven
 70
     0
 62
     5
  6
CONTINUOUS
  0
ENDTAB
  0
TABLE
  2
STYLE
 70
     1
  0
STYLE
  2
STANDARD
 70
     0
 40
         0
 41
         1
 50
         0
 71
     0
 42
       0.2
  3
txt
  4

  0
ENDTAB
  0
TABLE
  2
VIEW
 70
     0
  0
ENDTAB
  0
ENDSEC
  0
SECTION
  2
BLOCKS
  0
ENDSEC
  0
SECTION
  2
ENTITIES
  0
LINE
  8
Strassen_Wege
 10
-108.2136297
 20
-5.490935028
 11
-109.7188403
 21
-6.41709469
  0
LINE
  8
Strassen_Wege
 10
-81.82121226
 20
       -85
 11
-87.95977395
 21
-75.02683965
  0
LINE
  8
Strassen_Wege
 10
-87.95977395
 20
-75.02683965
 11
-70.79066626
 21
-64.47278351
  0
LINE
  8
Strassen_Wege
 10
-2.816815361
 20
-69.49278751
 11
9.413821978
 21
-49.95514533
  0
LINE
  8
Strassen_Wege
 10
9.413821978
 20
-49.95514533
 11
20.79316018
 21
-57.09359781
  0
LINE
  8
Strassen_Wege
 10
20.79316018
 20
-57.09359781
 11
22.99034351
 21
-53.6044054
  0
LINE
  8
Strassen_Wege
 10
22.99034351
 20
-53.6044054
 11
46.90087473
 21
-69.08455534
  0
LINE
  8
Strassen_Wege
 10
83.36254572
 20
52.05265027
 11
95.95233014
 21
68.74969431
  0
LINE
  8
Strassen_Wege
 10
95.95233014
 20
68.74969431
 11
78.73024757
 21
        85
  0
LINE
  8
Meterkurven
 10
-48.05307204
 20
78.11084591
 11
-52.91807673
 21
80.42463957
  0
LINE
  8
Meterkurven
 10
-52.91807673
 20
80.42463957
 11
-59.35472748
 21
        85
  0
LINE
  8
Meterkurven
 10
63.18137828
 20
19.24615791
 11
63.18137828
 21
19.24615791
  0
LINE
  8
Meterkurven
 10
 96.247064
 20
68.52411898
 11
 96.247064
 21
68.52411898
  0
LINE
  8
Meterkurven
 10
 96.247064
 20
68.52411898
 11
 96.247064
 21
68.52411898
  0
LINE
  8
Meterkurven
 10
100.8200354
 20
65.3173086
 11
100.8200354
 21
65.3173086
  0
LINE
  8
Meterkurven
 10
104.536417
 20
67.7096126
 11
104.536417
 21
67.7096126
  0
LINE
  8
Meterkurven
 10
93.68605725
 20
67.66938917
 11
93.68605725
 21
67.66938917
  0
LINE
  8
Meterkurven
 10
94.24561814
 20
66.50210302
 11
94.24561814
 21
66.50210302
  0
LINE
  8
Meterkurven
 10
94.07648668
 20
56.39573473
 11
94.07648668
 21
56.39573473
  0
LINE
  8
Meterkurven
 10
94.07648668
 20
56.39573473
 11
94.07648668
 21
56.39573473
  0
LINE
  8
Meterkurven
 10
94.07648668
 20
56.39573473
 11
94.07648668
 21
56.39573473
  0
LINE
  8
Meterkurven
 10
110.2651362
 20
44.95755005
 11
110.2651362
 21
44.95755006
  0
LINE
  8
Meterkurven
 10
110.2651362
 20
44.95755006
 11
110.2651362
 21
44.95755005
  0
LINE
  8
Meterkurven
 10
83.45132674
 20
52.17039498
 11
83.47869702
 21
52.16305847
  0
LINE
  8
Meterkurven
 10
90.0956823
 20
26.93588411
 11
90.09568231
 21
26.93588411
  0
LINE
  8
Meterkurven
 10
90.09568231
 20
26.93588411
 11
90.0956823
 21
26.93588411
  0
LINE
  8
Meterkurven
 10
90.0956823
 20
26.93588411
 11
90.0956823
 21
26.93588411
  0
LINE
  8
Meterkurven
 10
61.35767606
 20
49.15129175
 11
61.35767606
 21
49.15129175
  0
LINE
  8
Meterkurven
 10
61.35767606
 20
49.15129175
 11
61.35767606
 21
49.15129175
  0
LINE
  8
Meterkurven
 10
61.35767606
 20
49.15129175
 11
61.35767606
 21
49.15129175
  0
LINE
  8
Meterkurven
 10
61.35767606
 20
49.15129175
 11
61.35767606
 21
49.15129175
  0
LINE
  8
Meterkurven
 10
61.35767606
 20
49.15129175
 11
61.35767606
 21
49.15129175
  0
LINE
  8
Meterkurven
 10
61.35767606
 20
49.15129175
 11
61.35767606
 21
49.15129175
  0
LINE
  8
Meterkurven
 10
-99.51558592
 20
16.64215627
 11
-99.51558592
 21
16.64215627
  0
LINE
  8
Meterkurven
 10
-109.7188403
 20
-0.7853505425
 11
-109.2545973
 21
-1.25425552
  0
LINE
  8
Meterkurven
 10
-109.2545973
 20
-1.25425552
 11
-107.471702
 21
-2.681055164
  0
LINE
  8
Meterkurven
 10
-107.471702
 20
-2.681055164
 11
-107.471702
 21
-2.681055162
  0
LINE
  8
Meterkurven
 10
-107.471702
 20
-2.681055162
 11
-106.2369895
 21
-3.184703534
  0
LINE
  8
Meterkurven
 10
-106.2369895
 20
-3.184703534
 11
-104.9624163
 21
-3.539315844
  0
LINE
  8
Meterkurven
 10
-104.9624163
 20
-3.539315844
 11
-103.6662006
 21
-3.813008428
  0
LINE
  8
Meterkurven
 10
-103.6662006
 20
-3.813008428
 11
-102.3665605
 21
-4.073897636
  0
LINE
  8
Meterkurven
 10
40.50802285
 20
-81.23719281
 11
43.08296906
 21
-82.81196423
  0
LINE
  8
Meterkurven
 10
43.08296906
 20
-82.81196423
 11
43.08296906
 21
-82.81196423
  0
LINE
  8
Meterkurven
 10
43.08296906
 20
-82.81196423
 11
43.08296906
 21
-82.81196423
  0
LINE
  8
Meterkurven
 10
43.08296906
 20
-82.81196423
 11
43.08296906
 21
-82.81196423
  0
LINE
  8
Meterkurven
 10
43.08296906
 20
-82.81196423
 11
43.08296906
 21
-82.81196423
  0
LINE
  8
Meterkurven
 10
43.08296906
 20
-82.81196423
 11
43.08296906
 21
-82.81196423
  0
LINE
  8
Meterkurven
 10
43.08296906
 20
-82.81196423
 11
43.08296906
 21
-82.81196423
  0
LINE
  8
Meterkurven
 10
43.08296906
 20
-82.81196423
 11
43.08296906
 21
-82.81196423
  0
LINE
  8
Meterkurven
 10
43.08296906
 20
-82.81196423
 11
43.08296906
 21
-82.81196423
  0
LINE
  8
Meterkurven
 10
43.08296906
 20
-82.81196423
 11
43.08296906
 21
-82.81196423
  0
LINE
  8
Meterkurven
 10
43.08296906
 20
-82.81196423
 11
43.08296906
 21
-82.81196423
  0
LINE
  8
Meterkurven
 10
43.08296906
 20
-82.81196423
 11
43.08296906
 21
-82.81196423
  0
LINE
  8
Meterkurven
 10
43.08296906
 20
-82.81196423
 11
43.08296906
 21
-82.81196423
  0
LINE
  8
Meterkurven
 10
43.08296906
 20
-82.81196423
 11
43.08296906
 21
-82.81196423
  0
LINE
  8
Meterkurven
 10
43.08296906
 20
-82.81196423
 11
43.08296906
 21
-82.81196423
  0
LINE
  8
Meterkurven
 10
43.08296906
 20
-82.81196423
 11
44.05335189
 21
-83.62919316
  0
LINE
  8
Meterkurven
 10
44.05335189
 20
-83.62919316
 11
44.05335189
 21
-83.62919315
  0
LINE
  8
Meterkurven
 10
44.05335189
 20
-83.62919315
 11
47.79369415
 21
       -85
  0
LINE
  8
Meterkurven
 10
-52.5120775
 20
-78.75675464
 11
-52.5120775
 21
-78.75675463
  0
LINE
  8
Meterkurven
 10
-90.32976758
 20
-34.32005281
 11
-90.32976758
 21
-34.32005281
  0
LINE
  8
Meterkurven
 10
-87.92616785
 20
-32.76655396
 11
-87.92616785
 21
-32.76655396
  0
LINE
  8
Meterkurven
 10
-31.56774052
 20
-50.47053504
 11
-31.56774052
 21
-50.47053504
  0
LINE
  8
Meterkurven
 10
-31.56774052
 20
-50.47053504
 11
-31.56774052
 21
-50.47053504
  0
LINE
  8
Meterkurven
 10
-31.56774052
 20
-50.47053504
 11
-31.56774052
 21
-50.47053504
  0
LINE
  8
Meterkurven
 10
-31.56774052
 20
-50.47053504
 11
-31.56774052
 21
-50.47053504
  0
LINE
  8
Meterkurven
 10
-31.56774052
 20
-50.47053504
 11
-31.56774052
 21
-50.47053504
  0
LINE
  8
Meterkurven
 10
-31.56774052
 20
-50.47053504
 11
-31.56774052
 21
-50.47053504
  0
LINE
  8
Meterkurven
 10
-31.56774052
 20
-50.47053504
 11
-31.56774052
 21
-50.47053504
  0
LINE
  8
Meterkurven
 10
-31.56774052
 20
-50.47053504
 11
-31.56774052
 21
-50.47053504
  0
LINE
  8
Meterkurven
 10
-31.56774052
 20
-50.47053504
 11
-31.56774052
 21
-50.47053504
  0
LINE
  8
Meterkurven
 10
-31.56774052
 20
-50.47053504
 11
-31.56774052
 21
-50.47053504
  0
LINE
  8
Meterkurven
 10
-30.19285864
 20
-67.11617955
 11
-30.19285864
 21
-67.11617955
  0
LINE
  8
Meterkurven
 10
-30.19285864
 20
-67.11617955
 11
-30.19285864
 21
-67.11617955
  0
LINE
  8
Meterkurven
 10
-73.95050014
 20
-16.14209128
 11
-73.95050014
 21
-16.14209128
  0
LINE
  8
Meterkurven
 10
-23.27271292
 20
-66.7789975
 11
-23.27271291
 21
-66.7789975
  0
LINE
  8
Meterkurven
 10
-23.27271291
 20
-66.7789975
 11
-23.27271292
 21
-66.7789975
  0
LINE
  8
Meterkurven
 10
-109.7188403
 20
        85
 11
110.2811597
 21
        85
  0
LINE
  8
Meterkurven
 10
110.2811597
 20
        85
 11
110.2811597
 21
       -85
  0
LINE
  8
Meterkurven
 10
110.2811597
 20
       -85
 11
-109.7188403
 21
       -85
  0
LINE
  8
Meterkurven
 10
-109.7188403
 20
       -85
 11
-109.7188403
 21
        85
  0
LINE
  8
Meterkurven
 10
-48.05307204
 20
78.11084591
 11
-46.03843468
 21
77.22727684
  0
LINE
  8
Meterkurven
 10
-46.03843468
 20
77.22727684
 11
-28.24806179
 21
80.60941445
  0
LINE
  8
Meterkurven
 10
-28.24806179
 20
80.60941445
 11
-21.74210245
 21
79.37390084
  0
LINE
  8
Meterkurven
 10
-21.74210245
 20
79.37390084
 11
-17.78197353
 21
77.28738281
  0
LINE
  8
Meterkurven
 10
-27.92444799
 20
83.68235631
 11
-34.83063795
 21
84.82667198
  0
LINE
  8
Meterkurven
 10
-34.83063795
 20
84.82667198
 11
-35.38598399
 21
        85
  0
LINE
  8
Meterkurven
 10
-67.63600329
 20
-69.37540572
 11
-65.7079208
 21
-67.86367283
  0
LINE
  8
Meterkurven
 10
-65.7079208
 20
-67.86367283
 11
-65.7079208
 21
-67.86367283
  0
LINE
  8
Meterkurven
 10
-53.84075456
 20
-56.18153079
 11
-53.84075456
 21
-56.18153079
  0
LINE
  8
Meterkurven
 10
-35.96345014
 20
-62.76096861
 11
-35.96345014
 21
-62.76096861
  0
TEXT
  8
Meterkurven
 10
-64.55708754
 20
-38.22962601
 40
         1
  1
1.075
 41
0.8863666667
  0
TEXT
  8
Meterkurven
 10
-79.53158748
 20
-18.66946029
 40
         1
  1
1.076
 41
0.8863666667
  0
TEXT
  8
Meterkurven
 10
-98.84465653
 20
1.600847375
 40
         1
  1
1.077
 41
0.8863666667
  0
TEXT
  8
Meterkurven
 10
-106.8851002
 20
25.42820422
 40
         1
  1
1.078
 41
0.8863666667
  0
TEXT
  8
Meterkurven
 10
-108.5942598
 20
40.65703855
 40
         1
  1
1.079
 41
0.8863666667
  0
TEXT
  8
Meterkurven
 10
-108.9119679
 20
56.95279489
 40
         1
  1
1.080
 41
0.8863666667
  0
TEXT
  8
Meterkurven
 10
-59.07717598
 20
83.31889688
 40
         1
  1
1.083
 41
0.8863666667
  0
TEXT
  8
Meterkurven
 10
-33.13056698
 20
83.52598537
 40
         1
  1
1.084
 41
0.8863666667
  0
TEXT
  8
Meterkurven
 10
47.8002622
 20
-84.67586778
 40
         1
  1
1.077
 41
0.8863666667
  0
LINE
  8
Meterkurven
 10
-27.92444799
 20
83.68235631
 11
-21.40687431
 21
80.7345243
  0
LINE
  8
Meterkurven
 10
-21.40687431
 20
80.7345243
 11
-17.78197353
 21
77.28738281
  0
LINE
  8
Meterkurven
 10
62.92273788
 20
14.24383223
 11
56.42957514
 21
5.393259767
  0
LINE
  8
Meterkurven
 10
68.76240199
 20
41.7663218
 11
76.29748158
 21
 39.798204
  0
LINE
  8
Meterkurven
 10
76.29748158
 20
 39.798204
 11
78.15313551
 21
 39.798204
  0
LINE
  8
Meterkurven
 10
78.15313551
 20
 39.798204
 11
80.4991425
 21
38.13445243
  0
LINE
  8
Meterkurven
 10
80.4991425
 20
38.13445243
 11
80.52725847
 21
37.82517677
  0
LINE
  8
Meterkurven
 10
83.96380268
 20
47.7457276
 11
86.32109825
 21
46.03827796
  0
LINE
  8
Meterkurven
 10
54.69261486
 20
7.602465412
 11
74.13254579
 21
34.26288824
  0
LINE
  8
Meterkurven
 10
74.13254579
 20
34.26288824
 11
76.38102009
 21
32.55166001
  0
LINE
  8
Meterkurven
 10
62.92273788
 20
14.24383223
 11
76.38102009
 21
32.55166001
  0
LINE
  8
Meterkurven
 10
-2.816815361
 20
-69.49278751
 11
9.413821978
 21
-49.95514533
  0
LINE
  8
Meterkurven
 10
9.413821978
 20
-49.95514533
 11
20.79316018
 21
-57.09359781
  0
LINE
  8
Meterkurven
 10
20.79316018
 20
-57.09359781
 11
22.99034351
 21
-53.6044054
  0
LINE
  8
Meterkurven
 10
22.99034351
 20
-53.6044054
 11
46.90087473
 21
-69.08455534
  0
LINE
  8
Meterkurven
 10
46.90087473
 20
-69.08455534
 11
39.53556714
 21
-80.61471788
  0
LINE
  8
Meterkurven
 10
39.53556714
 20
-80.61471788
 11
40.50802285
 21
-81.23719281
  0
LINE
  8
Meterkurven
 10
-87.95977395
 20
-75.02683965
 11
-81.82121226
 21
       -85
  0
LINE
  8
Meterkurven
 10
-87.95977395
 20
-75.02683965
 11
-70.79066626
 21
-64.47278351
  0
LINE
  8
Meterkurven
 10
-58.15599677
 20
       -85
 11
-56.18379759
 21
-81.45323802
  0
LINE
  8
Meterkurven
 10
-67.72910531
 20
-69.44682137
 11
-67.63600329
 21
-69.37540572
  0
LINE
  8
Meterkurven
 10
-41.71476355
 20
-55.7237615
 11
-37.21214442
 21
-61.49499099
  0
LINE
  8
Meterkurven
 10
-37.21214442
 20
-61.49499099
 11
-32.23299721
 21
-67.33612998
  0
LINE
  8
Meterkurven
 10
-32.23299721
 20
-67.33612998
 11
-26.43948823
 21
-72.19828572
  0
LINE
  8
Meterkurven
 10
-26.43948823
 20
-72.19828572
 11
-23.38157747
 21
-73.98768956
  0
LINE
  8
Meterkurven
 10
-23.38157747
 20
-73.98768956
 11
-20.08663011
 21
-75.65629677
  0
LINE
  8
Meterkurven
 10
-56.18379759
 20
-81.45323802
 11
-52.5120775
 21
-78.75675464
  0
TEXT
  8
Meterkurven
 10
-45.36968566
 20
-73.19951406
 40
         1
  1
1.073
 41
0.8863666667
  0
LINE
  8
Meterkurven
 10
-20.08663011
 20
-75.65629677
 11
 8.6229469
 21
       -85
  0
LINE
  8
Meterkurven
 10
-52.5120775
 20
-78.75675464
 11
-31.16597732
 21
-68.23161783
  0
LINE
  8
Meterkurven
 10
-31.56774052
 20
-50.47053504
 11
-30.88759467
 21
-52.78658936
  0
LINE
  8
Meterkurven
 10
-84.39616629
 20
-24.77651537
 11
-73.11883211
 21
-17.07799216
  0
LINE
  8
Meterkurven
 10
-102.3665605
 20
-4.073897636
 11
-101.0171089
 21
-3.759973405
  0
LINE
  8
Meterkurven
 10
-101.0171089
 20
-3.759973405
 11
-90.21569063
 21
4.64140097
  0
LINE
  8
Meterkurven
 10
-30.19285864
 20
-67.11617955
 11
-26.43948823
 21
-72.19828572
  0
LINE
  8
Meterkurven
 10
-7.847978486
 20
-43.97119597
 11
-7.24161199
 21
-46.40339259
  0
LINE
  8
Meterkurven
 10
104.536417
 20
67.7096126
 11
110.2811597
 21
73.15658342
  0
LINE
  8
Meterkurven
 10
100.8200354
 20
65.3173086
 11
95.95233014
 21
68.74969431
  0
LINE
  8
Meterkurven
 10
94.07648668
 20
56.39573473
 11
89.34834657
 21
59.99124373
  0
LINE
  8
Meterkurven
 10
83.96380268
 20
47.7457276
 11
83.36254572
 21
52.05265027
  0
LINE
  8
Meterkurven
 10
83.36254572
 20
52.05265027
 11
95.95233014
 21
68.74969431
  0
LINE
  8
Meterkurven
 10
95.95233014
 20
68.74969431
 11
78.73024757
 21
        85
  0
LINE
  8
Meterkurven
 10
-90.39959794
 20
-34.41834103
 11
-108.2136297
 21
-5.490935028
  0
LINE
  8
Meterkurven
 10
-108.2136297
 20
-5.490935028
 11
-109.7188403
 21
-6.41709469
  0
LINE
  8
Meterkurven
 10
-103.9463869
 20
-63.08172134
 11
-109.7188403
 21
-62.59650386
  0
LINE
  8
Meterkurven
 10
41.74717168
 20
-21.03776344
 11
39.65599856
 21
-23.91109894
  0
LINE
  8
Meterkurven
 10
-71.48640779
 20
-43.56179337
 11
-59.25530514
 21
-36.86075973
  0
LINE
  8
Meterkurven
 10
1.441920598
 20
-82.66289212
 11
8.429527125
 21
-76.72741451
  0
LINE
  8
Strassen_Wege
 10
8.429527125
 20
-76.72741451
 11
-2.816815361
 21
-69.49278751
  0
LINE
  8
Meterkurven
 10
8.429527125
 20
-76.72741451
 11
-2.816815361
 21
-69.49278751
  0
LINE
  8
Meterkurven
 10
48.08464846
 20
62.38890659
 11
68.76240199
 21
41.7663218
  0
LINE
  8
Meterkurven
 10
65.29900942
 20
22.15824356
 11
65.30378431
 21
22.15489697
  0
LINE
  8
Meterkurven
 10
67.6558384
 20
25.37792995
 11
69.92248202
 21
23.78929981
  0
LINE
  8
Meterkurven
 10
67.57042793
 20
20.56626683
 11
67.57538301
 21
20.56279395
  0
LINE
  8
Meterkurven
 10
60.68048938
 20
15.86752942
 11
60.70584695
 21
15.84916704
  0
LINE
  8
Meterkurven
 10
61.17307021
 20
16.48619328
 11
63.38996114
 21
14.88085847
  0
LINE
  8
Meterkurven
 10
-23.49975941
 20
-50.79017759
 11
-19.34107211
 21
-49.67616342
  0
LINE
  8
Meterkurven
 10
-12.61181773
 20
-47.84114868
 11
-7.245530504
 21
-46.38767504
  0
LINE
  8
Meterkurven
 10
-30.88759467
 20
-52.78658936
 11
-35.29787236
 21
-53.98112519
  0
LINE
  8
Meterkurven
 10
-35.29787236
 20
-53.98112519
 11
-30.19285864
 21
-67.11617955
  0
LINE
  8
Meterkurven
 10
51.22073824
 20
-6.725188808
 11
48.3036273
 21
-11.22510683
  0
LINE
  8
Meterkurven
 10
65.17787401
 20
-33.55367111
 11
57.67397188
 21
-55.33286412
  0
ARC
  8
Meterkurven
 10
101.5895847
 20
67.74175224
 40
2.543645632
 50
252.3898985
 51
333.1654394
  0
ARC
  8
Meterkurven
 10
107.5841383
 20
65.09722149
 40
4.014124101
 50
139.3980705
 51
158.1143136
  0
LINE
  8
Meterkurven
 10
-105.1616056
 20
        85
 11
-103.9206898
 21
83.78281948
  0
LINE
  8
Meterkurven
 10
-103.9206898
 20
83.78281948
 11
-102.5787687
 21
82.49000239
  0
LINE
  8
Meterkurven
 10
-102.5787687
 20
82.49000239
 11
-101.1494508
 21
81.14058619
  0
LINE
  8
Meterkurven
 10
-101.1494508
 20
81.14058619
 11
-99.64634473
 21
79.75360834
  0
LINE
  8
Meterkurven
 10
-99.64634473
 20
79.75360834
 11
-98.083059
 21
78.34810632
  0
LINE
  8
Meterkurven
 10
-98.083059
 20
78.34810632
 11
-96.47320217
 21
76.94311758
  0
LINE
  8
Meterkurven
 10
-96.47320217
 20
76.94311758
 11
-94.83038279
 21
75.5576796
  0
LINE
  8
Meterkurven
 10
-94.83038279
 20
75.5576796
 11
-93.16820943
 21
74.21082983
  0
LINE
  8
Meterkurven
 10
-93.16820943
 20
74.21082983
 11
-91.50029062
 21
72.92160574
  0
LINE
  8
Meterkurven
 10
-91.50029062
 20
72.92160574
 11
-89.84023494
 21
71.7090448
  0
LINE
  8
Meterkurven
 10
-89.84023494
 20
71.7090448
 11
-88.06877613
 21
70.48403772
  0
LINE
  8
Meterkurven
 10
-88.06877613
 20
70.48403772
 11
-86.27381065
 21
69.2915277
  0
LINE
  8
Meterkurven
 10
-86.27381065
 20
69.2915277
 11
-84.45964215
 21
68.12531551
  0
LINE
  8
Meterkurven
 10
-84.45964215
 20
68.12531551
 11
-82.63057433
 21
66.9792019
  0
LINE
  8
Meterkurven
 10
-82.63057433
 20
66.9792019
 11
-80.79091086
 21
65.84698763
  0
LINE
  8
Meterkurven
 10
-80.79091086
 20
65.84698763
 11
-78.94495541
 21
64.72247346
  0
LINE
  8
Meterkurven
 10
-78.94495541
 20
64.72247346
 11
-77.09701166
 21
63.59946015
  0
LINE
  8
Meterkurven
 10
-77.09701166
 20
63.59946015
 11
-75.2513833
 21
62.47174846
  0
LINE
  8
Meterkurven
 10
-75.2513833
 20
62.47174846
 11
-73.41237399
 21
61.33313915
  0
LINE
  8
Meterkurven
 10
-73.41237399
 20
61.33313915
 11
-71.58428742
 21
60.17743298
  0
LINE
  8
Meterkurven
 10
-71.58428742
 20
60.17743298
 11
-69.5603158
 21
58.86739941
  0
LINE
  8
Meterkurven
 10
-69.5603158
 20
58.86739941
 11
-67.54840955
 21
 57.542747
  0
LINE
  8
Meterkurven
 10
-67.54840955
 20
 57.542747
 11
-65.54437493
 21
56.20881612
  0
LINE
  8
Meterkurven
 10
-65.54437493
 20
56.20881612
 11
-63.54401819
 21
54.87094713
  0
LINE
  8
Meterkurven
 10
-63.54401819
 20
54.87094713
 11
-61.54314559
 21
53.53448039
  0
LINE
  8
Meterkurven
 10
-61.54314559
 20
53.53448039
 11
-59.53756339
 21
52.20475626
  0
LINE
  8
Meterkurven
 10
-59.53756339
 20
52.20475626
 11
-57.52307784
 21
50.88711512
  0
LINE
  8
Meterkurven
 10
-57.52307784
 20
50.88711512
 11
-55.49549519
 21
49.58689732
  0
LINE
  8
Meterkurven
 10
-55.49549519
 20
49.58689732
 11
-53.4506217
 21
48.30944322
  0
LINE
  8
Meterkurven
 10
-53.4506217
 20
48.30944322
 11
-51.38426363
 21
47.0600932
  0
LINE
  8
Meterkurven
 10
-51.38426363
 20
47.0600932
 11
-49.42861948
 21
45.90281099
  0
LINE
  8
Meterkurven
 10
-49.42861948
 20
45.90281099
 11
-47.45999619
 21
   44.7536
  0
LINE
  8
Meterkurven
 10
-47.45999619
 20
   44.7536
 11
-45.4762543
 21
43.62487355
  0
LINE
  8
Meterkurven
 10
-45.4762543
 20
43.62487355
 11
-43.4752543
 21
42.52904497
  0
LINE
  8
Meterkurven
 10
-43.4752543
 20
42.52904497
 11
-41.45485672
 21
41.47852761
  0
LINE
  8
Meterkurven
 10
-41.45485672
 20
41.47852761
 11
-39.41292207
 21
40.48573478
  0
LINE
  8
Meterkurven
 10
-39.41292207
 20
40.48573478
 11
-37.34731086
 21
39.56307983
  0
LINE
  8
Meterkurven
 10
-37.34731086
 20
39.56307983
 11
-35.25588362
 21
38.72297609
  0
LINE
  8
Meterkurven
 10
-35.25588362
 20
38.72297609
 11
-33.13650085
 21
37.97783688
  0
LINE
  8
Meterkurven
 10
-33.13650085
 20
37.97783688
 11
-30.98702307
 21
37.34007555
  0
LINE
  8
Meterkurven
 10
-30.98702307
 20
37.34007555
 11
-28.98075414
 21
36.87096118
  0
LINE
  8
Meterkurven
 10
-28.98075414
 20
36.87096118
 11
-26.9435221
 21
36.51033501
  0
LINE
  8
Meterkurven
 10
-26.9435221
 20
36.51033501
 11
-24.88317998
 21
36.23074617
  0
LINE
  8
Meterkurven
 10
-24.88317998
 20
36.23074617
 11
-22.80758081
 21
36.00474379
  0
LINE
  8
Meterkurven
 10
-71.88710732
 20
        85
 11
-70.95392105
 21
84.18213505
  0
LINE
  8
Meterkurven
 10
-70.95392105
 20
84.18213505
 11
-69.94944885
 21
83.33072352
  0
LINE
  8
Meterkurven
 10
-69.94944885
 20
83.33072352
 11
-68.88442173
 21
82.45401617
  0
LINE
  8
Meterkurven
 10
-68.88442173
 20
82.45401617
 11
-67.76957074
 21
81.56026379
  0
LINE
  8
Meterkurven
 10
-67.76957074
 20
81.56026379
 11
-66.61562689
 21
80.65771716
  0
LINE
  8
Meterkurven
 10
-66.61562689
 20
80.65771716
 11
-65.43332122
 21
79.75462706
  0
LINE
  8
Meterkurven
 10
-65.43332122
 20
79.75462706
 11
-64.23338474
 21
78.85924427
  0
LINE
  8
Meterkurven
 10
-64.23338474
 20
78.85924427
 11
-63.0265485
 21
77.97981956
  0
LINE
  8
Meterkurven
 10
-63.0265485
 20
77.97981956
 11
-61.82354351
 21
77.12460373
  0
LINE
  8
Meterkurven
 10
-61.82354351
 20
77.12460373
 11
-60.63510081
 21
76.30184754
  0
LINE
  8
Meterkurven
 10
-60.63510081
 20
76.30184754
 11
-59.76230986
 21
75.70913864
  0
LINE
  8
Meterkurven
 10
-59.76230986
 20
75.70913864
 11
-58.88511588
 21
75.12140366
  0
LINE
  8
Meterkurven
 10
-58.88511588
 20
75.12140366
 11
-58.00277811
 21
74.54102721
  0
LINE
  8
Meterkurven
 10
-58.00277811
 20
74.54102721
 11
-57.11455581
 21
73.97039389
  0
LINE
  8
Meterkurven
 10
-57.11455581
 20
73.97039389
 11
-56.21970822
 21
73.41188828
  0
LINE
  8
Meterkurven
 10
-56.21970822
 20
73.41188828
 11
-55.31749461
 21
72.86789498
  0
LINE
  8
Meterkurven
 10
-55.31749461
 20
72.86789498
 11
-54.40717421
 21
72.34079859
  0
LINE
  8
Meterkurven
 10
-54.40717421
 20
72.34079859
 11
-53.48800629
 21
71.83298369
  0
LINE
  8
Meterkurven
 10
-53.48800629
 20
71.83298369
 11
-52.55925009
 21
71.34683489
  0
LINE
  8
Meterkurven
 10
-52.55925009
 20
71.34683489
 11
-51.62016487
 21
70.88473679
  0
LINE
  8
Meterkurven
 10
-51.62016487
 20
70.88473679
 11
-49.60711366
 21
69.98110664
  0
LINE
  8
Meterkurven
 10
-49.60711366
 20
69.98110664
 11
-47.55739203
 21
69.15973404
  0
LINE
  8
Meterkurven
 10
-47.55739203
 20
69.15973404
 11
-45.47575206
 21
68.41061837
  0
LINE
  8
Meterkurven
 10
-45.47575206
 20
68.41061837
 11
-43.36694579
 21
 67.723759
  0
LINE
  8
Meterkurven
 10
-43.36694579
 20
 67.723759
 11
-41.23572529
 21
67.0891553
  0
LINE
  8
Meterkurven
 10
-41.23572529
 20
67.0891553
 11
-39.08684262
 21
66.49680667
  0
LINE
  8
Meterkurven
 10
-39.08684262
 20
66.49680667
 11
-36.92504983
 21
65.93671246
  0
LINE
  8
Meterkurven
 10
-36.92504983
 20
65.93671246
 11
-34.75509899
 21
65.39887207
  0
LINE
  8
Meterkurven
 10
-34.75509899
 20
65.39887207
 11
-32.58174215
 21
64.87328487
  0
LINE
  8
Meterkurven
 10
-32.58174215
 20
64.87328487
 11
-30.40973137
 21
64.34995023
  0
LINE
  8
Meterkurven
 10
-30.40973137
 20
64.34995023
 11
-28.81613552
 21
63.96491799
  0
LINE
  8
Meterkurven
 10
-28.81613552
 20
63.96491799
 11
-27.22454011
 21
63.57942948
  0
LINE
  8
Meterkurven
 10
-27.22454011
 20
63.57942948
 11
-25.63603157
 21
63.1894659
  0
LINE
  8
Meterkurven
 10
-25.63603157
 20
63.1894659
 11
-24.05169628
 21
62.79100845
  0
LINE
  8
Meterkurven
 10
-24.05169628
 20
62.79100845
 11
-22.47262066
 21
62.38003832
  0
LINE
  8
Meterkurven
 10
-22.47262066
 20
62.38003832
 11
-20.89989111
 21
61.95253673
  0
LINE
  8
Meterkurven
 10
-20.89989111
 20
61.95253673
 11
-19.33459402
 21
61.50448487
  0
LINE
  8
Meterkurven
 10
-19.33459402
 20
61.50448487
 11
-17.77781581
 21
61.03186394
  0
LINE
  8
Meterkurven
 10
-17.77781581
 20
61.03186394
 11
-16.23064287
 21
60.53065515
  0
LINE
  8
Meterkurven
 10
-16.23064287
 20
60.53065515
 11
-14.69416162
 21
59.99683969
  0
LINE
  8
Meterkurven
 10
-14.69416162
 20
59.99683969
 11
-13.34461908
 21
59.49439371
  0
LINE
  8
Meterkurven
 10
-13.34461908
 20
59.49439371
 11
-12.00433236
 21
58.96392918
  0
LINE
  8
Meterkurven
 10
-12.00433236
 20
58.96392918
 11
-10.67324234
 21
58.40722223
  0
LINE
  8
Meterkurven
 10
-10.67324234
 20
58.40722223
 11
-9.351289876
 21
57.82604905
  0
LINE
  8
Meterkurven
 10
-9.351289876
 20
57.82604905
 11
-8.038415843
 21
57.22218578
  0
LINE
  8
Meterkurven
 10
-8.038415843
 20
57.22218578
 11
-6.734561108
 21
56.5974086
  0
LINE
  8
Meterkurven
 10
-6.734561108
 20
56.5974086
 11
-5.439666538
 21
55.95349365
  0
LINE
  8
Meterkurven
 10
-5.439666538
 20
55.95349365
 11
-4.153673001
 21
55.29221711
  0
LINE
  8
Meterkurven
 10
-4.153673001
 20
55.29221711
 11
-2.876521366
 21
54.61535513
  0
LINE
  8
Meterkurven
 10
-2.876521366
 20
54.61535513
 11
-1.608152501
 21
53.92468388
  0
LINE
  8
Meterkurven
 10
-1.608152501
 20
53.92468388
 11
0.265314951
 21
52.86623961
  0
LINE
  8
Meterkurven
 10
0.265314951
 20
52.86623961
 11
2.117244786
 21
51.77241752
  0
LINE
  8
Meterkurven
 10
-109.7188403
 20
58.72531294
 11
-107.6464083
 21
57.61989807
  0
LINE
  8
Meterkurven
 10
-107.6464083
 20
57.61989807
 11
-105.3900132
 21
56.40325411
  0
LINE
  8
Meterkurven
 10
-105.3900132
 20
56.40325411
 11
-102.9790127
 21
55.10088588
  0
LINE
  8
Meterkurven
 10
-102.9790127
 20
55.10088588
 11
-100.4427643
 21
53.73829817
  0
LINE
  8
Meterkurven
 10
-100.4427643
 20
53.73829817
 11
-97.81062566
 21
52.34099578
  0
LINE
  8
Meterkurven
 10
-97.81062566
 20
52.34099578
 11
-95.11195426
 21
50.9344835
  0
LINE
  8
Meterkurven
 10
-95.11195426
 20
50.9344835
 11
-92.3761077
 21
49.54426613
  0
LINE
  8
Meterkurven
 10
-92.3761077
 20
49.54426613
 11
-89.63244357
 21
48.19584847
  0
LINE
  8
Meterkurven
 10
-89.63244357
 20
48.19584847
 11
-86.91031944
 21
46.91473531
  0
LINE
  8
Meterkurven
 10
-86.91031944
 20
46.91473531
 11
-84.23909288
 21
45.72643146
  0
LINE
  8
Meterkurven
 10
-84.23909288
 20
45.72643146
 11
-82.23108968
 21
44.87258543
  0
LINE
  8
Meterkurven
 10
-82.23108968
 20
44.87258543
 11
-80.21772191
 21
44.02902712
  0
LINE
  8
Meterkurven
 10
-80.21772191
 20
44.02902712
 11
-78.20342832
 21
43.18795086
  0
LINE
  8
Meterkurven
 10
-78.20342832
 20
43.18795086
 11
-76.19264769
 21
42.34155099
  0
LINE
  8
Meterkurven
 10
-76.19264769
 20
42.34155099
 11
-74.18981878
 21
41.48202187
  0
LINE
  8
Meterkurven
 10
-74.18981878
 20
41.48202187
 11
-72.19938035
 21
40.60155784
  0
LINE
  8
Meterkurven
 10
-72.19938035
 20
40.60155784
 11
-70.22577118
 21
39.69235323
  0
LINE
  8
Meterkurven
 10
-70.22577118
 20
39.69235323
 11
-68.27343003
 21
38.74660239
  0
LINE
  8
Meterkurven
 10
-68.27343003
 20
38.74660239
 11
-66.34679567
 21
37.75649966
  0
LINE
  8
Meterkurven
 10
-66.34679567
 20
37.75649966
 11
-64.45030685
 21
36.71423939
  0
LINE
  8
Meterkurven
 10
-64.45030685
 20
36.71423939
 11
-62.31474672
 21
35.43594947
  0
LINE
  8
Meterkurven
 10
-62.31474672
 20
35.43594947
 11
-60.22788554
 21
34.07672674
  0
LINE
  8
Meterkurven
 10
-60.22788554
 20
34.07672674
 11
-58.17933072
 21
32.65282282
  0
LINE
  8
Meterkurven
 10
-58.17933072
 20
32.65282282
 11
-56.15868965
 21
31.18048932
  0
LINE
  8
Meterkurven
 10
-56.15868965
 20
31.18048932
 11
-54.15556974
 21
29.67597786
  0
LINE
  8
Meterkurven
 10
-54.15556974
 20
29.67597786
 11
-52.15957838
 21
28.15554004
  0
LINE
  8
Meterkurven
 10
-52.15957838
 20
28.15554004
 11
-50.16032297
 21
26.63542749
  0
LINE
  8
Meterkurven
 10
-50.16032297
 20
26.63542749
 11
-48.14741092
 21
25.13189182
  0
LINE
  8
Meterkurven
 10
-48.14741092
 20
25.13189182
 11
-46.11044961
 21
23.66118463
  0
LINE
  8
Meterkurven
 10
-109.7188403
 20
42.02626599
 11
-108.2649356
 21
41.47637393
  0
LINE
  8
Meterkurven
 10
-108.2649356
 20
41.47637393
 11
-106.6898124
 21
40.86501366
  0
LINE
  8
Meterkurven
 10
-106.6898124
 20
40.86501366
 11
-105.0158791
 21
40.20067699
  0
LINE
  8
Meterkurven
 10
-105.0158791
 20
40.20067699
 11
-103.2655441
 21
39.49185571
  0
LINE
  8
Meterkurven
 10
-103.2655441
 20
39.49185571
 11
-101.461216
 21
38.74704162
  0
LINE
  8
Meterkurven
 10
-101.461216
 20
38.74704162
 11
-99.62530327
 21
37.97472651
  0
LINE
  8
Meterkurven
 10
-99.62530327
 20
37.97472651
 11
-97.78021431
 21
37.18340218
  0
LINE
  8
Meterkurven
 10
-97.78021431
 20
37.18340218
 11
-95.94835764
 21
36.38156043
  0
LINE
  8
Meterkurven
 10
-95.94835764
 20
36.38156043
 11
-94.15214171
 21
35.57769306
  0
LINE
  8
Meterkurven
 10
-94.15214171
 20
35.57769306
 11
-92.41397501
 21
34.78029187
  0
LINE
  8
Meterkurven
 10
-92.41397501
 20
34.78029187
 11
-90.94034615
 21
34.08781219
  0
LINE
  8
Meterkurven
 10
-90.94034615
 20
34.08781219
 11
-89.47248064
 21
33.38399874
  0
LINE
  8
Meterkurven
 10
-89.47248064
 20
33.38399874
 11
-88.01011483
 21
32.66927954
  0
LINE
  8
Meterkurven
 10
-88.01011483
 20
32.66927954
 11
-86.55298503
 21
31.94408258
  0
LINE
  8
Meterkurven
 10
-86.55298503
 20
31.94408258
 11
-85.1008276
 21
31.20883589
  0
LINE
  8
Meterkurven
 10
-85.1008276
 20
31.20883589
 11
-83.65337885
 21
30.46396748
  0
LINE
  8
Meterkurven
 10
-83.65337885
 20
30.46396748
 11
-82.21037513
 21
29.70990536
  0
LINE
  8
Meterkurven
 10
-82.21037513
 20
29.70990536
 11
-80.77155278
 21
28.94707755
  0
LINE
  8
Meterkurven
 10
-80.77155278
 20
28.94707755
 11
-79.33664811
 21
28.17591206
  0
LINE
  8
Meterkurven
 10
-79.33664811
 20
28.17591206
 11
-77.90539748
 21
27.3968369
  0
LINE
  8
Meterkurven
 10
-77.90539748
 20
27.3968369
 11
-76.40758868
 21
26.57499815
  0
LINE
  8
Meterkurven
 10
-76.40758868
 20
26.57499815
 11
-74.91147258
 21
25.74769582
  0
LINE
  8
Meterkurven
 10
-74.91147258
 20
25.74769582
 11
-73.41984794
 21
24.91151985
  0
LINE
  8
Meterkurven
 10
-73.41984794
 20
24.91151985
 11
-71.93551353
 21
24.06306013
  0
LINE
  8
Meterkurven
 10
-71.93551353
 20
24.06306013
 11
-70.4612681
 21
23.19890659
  0
LINE
  8
Meterkurven
 10
-70.4612681
 20
23.19890659
 11
-68.99991043
 21
22.31564913
  0
LINE
  8
Meterkurven
 10
-68.99991043
 20
22.31564913
 11
-67.55423926
 21
21.40987769
  0
LINE
  8
Meterkurven
 10
-67.55423926
 20
21.40987769
 11
-66.12705337
 21
20.47818216
  0
LINE
  8
Meterkurven
 10
-66.12705337
 20
20.47818216
 11
-64.72115151
 21
19.51715247
  0
LINE
  8
Meterkurven
 10
-64.72115151
 20
19.51715247
 11
-63.33933245
 21
18.52337853
  0
LINE
  8
Meterkurven
 10
-63.33933245
 20
18.52337853
 11
-62.31555322
 21
17.74907172
  0
LINE
  8
Meterkurven
 10
-62.31555322
 20
17.74907172
 11
-61.30747039
 21
16.95358914
  0
LINE
  8
Meterkurven
 10
-61.30747039
 20
16.95358914
 11
-60.31283518
 21
16.13997183
  0
LINE
  8
Meterkurven
 10
-60.31283518
 20
16.13997183
 11
-59.32939883
 21
15.31126082
  0
LINE
  8
Meterkurven
 10
-109.7188403
 20
25.76560788
 11
-109.4132251
 21
25.78245159
  0
LINE
  8
Meterkurven
 10
-109.4132251
 20
25.78245159
 11
-109.0926853
 21
25.79485587
  0
LINE
  8
Meterkurven
 10
-109.0926853
 20
25.79485587
 11
-108.7599014
 21
25.8025895
  0
LINE
  8
Meterkurven
 10
-108.7599014
 20
25.8025895
 11
-108.4175537
 21
25.80542125
  0
LINE
  8
Meterkurven
 10
-108.4175537
 20
25.80542125
 11
-108.0683227
 21
25.8031199
  0
LINE
  8
Meterkurven
 10
-108.0683227
 20
25.8031199
 11
-107.7148887
 21
25.79545423
  0
LINE
  8
Meterkurven
 10
-107.7148887
 20
25.79545423
 11
-107.3599322
 21
25.78219302
  0
LINE
  8
Meterkurven
 10
-107.3599322
 20
25.78219302
 11
-107.0061336
 21
25.76310505
  0
LINE
  8
Meterkurven
 10
-107.0061336
 20
25.76310505
 11
-106.6561733
 21
25.7379591
  0
LINE
  8
Meterkurven
 10
-106.6561733
 20
25.7379591
 11
-106.3127317
 21
25.70652394
  0
LINE
  8
Meterkurven
 10
-106.3127317
 20
25.70652394
 11
-105.8170527
 21
25.65121425
  0
LINE
  8
Meterkurven
 10
-105.8170527
 20
25.65121425
 11
-105.3211633
 21
25.5859753
  0
LINE
  8
Meterkurven
 10
-105.3211633
 20
25.5859753
 11
-104.8260135
 21
25.5100774
  0
LINE
  8
Meterkurven
 10
-104.8260135
 20
25.5100774
 11
-104.3325535
 21
25.42279083
  0
LINE
  8
Meterkurven
 10
-104.3325535
 20
25.42279083
 11
-103.8417334
 21
25.3233859
  0
LINE
  8
Meterkurven
 10
-103.8417334
 20
25.3233859
 11
-103.3545031
 21
25.21113289
  0
LINE
  8
Meterkurven
 10
-103.3545031
 20
25.21113289
 11
-102.871813
 21
25.0853021
  0
LINE
  8
Meterkurven
 10
-102.871813
 20
25.0853021
 11
-102.3946129
 21
24.94516382
  0
LINE
  8
Meterkurven
 10
-102.3946129
 20
24.94516382
 11
-101.9238531
 21
24.78998835
  0
LINE
  8
Meterkurven
 10
-101.9238531
 20
24.78998835
 11
-101.4604835
 21
24.61904598
  0
LINE
  8
Meterkurven
 10
-101.4604835
 20
24.61904598
 11
-100.8567036
 21
24.36535281
  0
LINE
  8
Meterkurven
 10
-100.8567036
 20
24.36535281
 11
-100.2641426
 21
 24.083796
  0
LINE
  8
Meterkurven
 10
-100.2641426
 20
 24.083796
 11
-99.68035023
 21
23.78003879
  0
LINE
  8
Meterkurven
 10
-99.68035023
 20
23.78003879
 11
-99.10287575
 21
23.45974441
  0
LINE
  8
Meterkurven
 10
-99.10287575
 20
23.45974441
 11
-98.52926865
 21
23.1285761
  0
LINE
  8
Meterkurven
 10
-98.52926865
 20
23.1285761
 11
-97.95707838
 21
22.79219709
  0
LINE
  8
Meterkurven
 10
-97.95707838
 20
22.79219709
 11
-97.38385437
 21
22.45627061
  0
LINE
  8
Meterkurven
 10
-97.38385437
 20
22.45627061
 11
-96.80714608
 21
22.12645989
  0
LINE
  8
Meterkurven
 10
-96.80714608
 20
22.12645989
 11
-96.22450293
 21
21.80842818
  0
LINE
  8
Meterkurven
 10
-96.22450293
 20
21.80842818
 11
-95.63347437
 21
21.50783869
  0
LINE
  8
Meterkurven
 10
-95.63347437
 20
21.50783869
 11
-94.54419519
 21
21.00301157
  0
LINE
  8
Meterkurven
 10
-94.54419519
 20
21.00301157
 11
-93.43863593
 21
20.5314701
  0
LINE
  8
Meterkurven
 10
-93.43863593
 20
20.5314701
 11
-92.32253719
 21
20.0824504
  0
LINE
  8
Meterkurven
 10
-92.32253719
 20
20.0824504
 11
-91.20163956
 21
19.6451886
  0
LINE
  8
Meterkurven
 10
-91.20163956
 20
19.6451886
 11
-90.08168364
 21
19.20892083
  0
LINE
  8
Meterkurven
 10
-90.08168364
 20
19.20892083
 11
 -88.96841
 21
18.76288321
  0
LINE
  8
Meterkurven
 10
 -88.96841
 20
18.76288321
 11
-87.86755926
 21
18.29631188
  0
LINE
  8
Meterkurven
 10
-87.86755926
 20
18.29631188
 11
-86.78487199
 21
17.79844296
  0
LINE
  8
Meterkurven
 10
-86.78487199
 20
17.79844296
 11
-85.72608879
 21
17.25851258
  0
LINE
  8
Meterkurven
 10
-85.72608879
 20
17.25851258
 11
-84.69695026
 21
16.66575687
  0
LINE
  8
Meterkurven
 10
-84.69695026
 20
16.66575687
 11
-84.20806539
 21
16.35056798
  0
LINE
  8
Meterkurven
 10
-84.20806539
 20
16.35056798
 11
-83.72982835
 21
16.01699478
  0
LINE
  8
Meterkurven
 10
-83.72982835
 20
16.01699478
 11
-83.25964362
 21
15.66942724
  0
LINE
  8
Meterkurven
 10
-83.25964362
 20
15.66942724
 11
-82.79491569
 21
15.31225534
  0
LINE
  8
Meterkurven
 10
-82.79491569
 20
15.31225534
 11
-82.33304906
 21
14.94986905
  0
LINE
  8
Meterkurven
 10
-82.33304906
 20
14.94986905
 11
-81.8714482
 21
14.58665834
  0
LINE
  8
Meterkurven
 10
-81.8714482
 20
14.58665834
 11
-81.40751761
 21
14.22701319
  0
LINE
  8
Meterkurven
 10
-81.40751761
 20
14.22701319
 11
-80.93866177
 21
13.87532357
  0
LINE
  8
Meterkurven
 10
-80.93866177
 20
13.87532357
 11
-80.46228518
 21
13.53597946
  0
LINE
  8
Meterkurven
 10
-80.46228518
 20
13.53597946
 11
-79.97579232
 21
13.21337082
  0
LINE
  8
Meterkurven
 10
-79.97579232
 20
13.21337082
 11
-79.41874068
 21
12.8826009
  0
LINE
  8
Meterkurven
 10
-79.41874068
 20
12.8826009
 11
-78.84412082
 21
12.57996481
  0
LINE
  8
Meterkurven
 10
-78.84412082
 20
12.57996481
 11
-78.25659264
 21
12.2981717
  0
LINE
  8
Meterkurven
 10
-78.25659264
 20
12.2981717
 11
-77.66081606
 21
12.02993069
  0
LINE
  8
Meterkurven
 10
-77.66081606
 20
12.02993069
 11
-77.06145099
 21
11.76795091
  0
LINE
  8
Meterkurven
 10
-77.06145099
 20
11.76795091
 11
-76.46315734
 21
11.50494151
  0
LINE
  8
Meterkurven
 10
-76.46315734
 20
11.50494151
 11
-75.87059503
 21
11.2336116
  0
LINE
  8
Meterkurven
 10
-75.87059503
 20
11.2336116
 11
-75.28842397
 21
10.94667032
  0
LINE
  8
Meterkurven
 10
-75.28842397
 20
10.94667032
 11
-74.72130407
 21
10.63682681
  0
LINE
  8
Meterkurven
 10
-74.72130407
 20
10.63682681
 11
-74.17389524
 21
10.2967902
  0
LINE
  8
Meterkurven
 10
-74.17389524
 20
10.2967902
 11
-73.60634591
 21
9.897566753
  0
LINE
  8
Meterkurven
 10
-73.60634591
 20
9.897566753
 11
-73.05587783
 21
9.473359275
  0
LINE
  8
Meterkurven
 10
-73.05587783
 20
9.473359275
 11
-72.5189561
 21
9.02908203
  0
LINE
  8
Meterkurven
 10
-72.5189561
 20
9.02908203
 11
-71.99204582
 21
8.569649284
  0
LINE
  8
Meterkurven
 10
-90.21569063
 20
4.64140097
 11
-89.81100472
 21
4.568299734
  0
LINE
  8
Meterkurven
 10
-89.81100472
 20
4.568299734
 11
-89.38751542
 21
4.487491472
  0
LINE
  8
Meterkurven
 10
-89.38751542
 20
4.487491472
 11
-88.94905492
 21
4.39888068
  0
LINE
  8
Meterkurven
 10
-88.94905492
 20
4.39888068
 11
-88.4994554
 21
4.302371853
  0
LINE
  8
Meterkurven
 10
-88.4994554
 20
4.302371853
 11
-88.04254903
 21
4.197869488
  0
LINE
  8
Meterkurven
 10
-88.04254903
 20
4.197869488
 11
-87.58216799
 21
4.085278081
  0
LINE
  8
Meterkurven
 10
-87.58216799
 20
4.085278081
 11
-87.12214445
 21
3.964502127
  0
LINE
  8
Meterkurven
 10
-87.12214445
 20
3.964502127
 11
-86.66631059
 21
3.835446122
  0
LINE
  8
Meterkurven
 10
-86.66631059
 20
3.835446122
 11
-86.21849859
 21
3.698014563
  0
LINE
  8
Meterkurven
 10
-86.21849859
 20
3.698014563
 11
-85.78254062
 21
3.552111945
  0
LINE
  8
Meterkurven
 10
-85.78254062
 20
3.552111945
 11
-84.9098832
 21
3.226954415
  0
LINE
  8
Meterkurven
 10
-84.9098832
 20
3.226954415
 11
-84.0488064
 21
2.869841733
  0
LINE
  8
Meterkurven
 10
-84.0488064
 20
2.869841733
 11
-83.19801345
 21
2.484836459
  0
LINE
  8
Meterkurven
 10
-83.19801345
 20
2.484836459
 11
-82.35620757
 21
2.076001154
  0
LINE
  8
Meterkurven
 10
-23.49975941
 20
-50.79017759
 11
-23.65793998
 21
-51.21096199
  0
LINE
  8
Meterkurven
 10
-23.65793998
 20
-51.21096199
 11
-23.81822237
 21
-51.67085311
  0
LINE
  8
Meterkurven
 10
-23.81822237
 20
-51.67085311
 11
-23.9774833
 21
-52.16342354
  0
LINE
  8
Meterkurven
 10
-23.9774833
 20
-52.16342354
 11
-24.13259946
 21
-52.68224584
  0
LINE
  8
Meterkurven
 10
-24.13259946
 20
-52.68224584
 11
-24.28044759
 21
-53.2208926
  0
LINE
  8
Meterkurven
 10
-24.28044759
 20
-53.2208926
 11
-24.4179044
 21
-53.77293639
  0
LINE
  8
Meterkurven
 10
-24.4179044
 20
-53.77293639
 11
-24.54184661
 21
-54.33194979
  0
LINE
  8
Meterkurven
 10
-24.54184661
 20
-54.33194979
 11
-24.64915092
 21
-54.89150538
  0
LINE
  8
Meterkurven
 10
-24.64915092
 20
-54.89150538
 11
-24.73669407
 21
-55.44517574
  0
LINE
  8
Meterkurven
 10
-24.73669407
 20
-55.44517574
 11
-24.80135276
 21
-55.98653344
  0
LINE
  8
Meterkurven
 10
-24.80135276
 20
-55.98653344
 11
-24.85804378
 21
-56.71511748
  0
LINE
  8
Meterkurven
 10
-24.85804378
 20
-56.71511748
 11
-24.88667255
 21
-57.44500332
  0
LINE
  8
Meterkurven
 10
-24.88667255
 20
-57.44500332
 11
-24.88878166
 21
-58.17578776
  0
LINE
  8
Meterkurven
 10
-24.88878166
 20
-58.17578776
 11
-24.86591369
 21
-58.90706761
  0
LINE
  8
Meterkurven
 10
-24.86591369
 20
-58.90706761
 11
-24.81961124
 21
-59.63843968
  0
LINE
  8
Meterkurven
 10
-24.81961124
 20
-59.63843968
 11
-24.75141689
 21
-60.36950076
  0
LINE
  8
Meterkurven
 10
-24.75141689
 20
-60.36950076
 11
-24.66287324
 21
-61.09984768
  0
LINE
  8
Meterkurven
 10
-24.66287324
 20
-61.09984768
 11
-24.55552287
 21
-61.82907722
  0
LINE
  8
Meterkurven
 10
-24.55552287
 20
-61.82907722
 11
-24.43090837
 21
-62.55678621
  0
LINE
  8
Meterkurven
 10
-24.43090837
 20
-62.55678621
 11
-24.29057233
 21
-63.28257144
  0
LINE
  8
Meterkurven
 10
-24.29057233
 20
-63.28257144
 11
-24.21811067
 21
-63.64487665
  0
LINE
  8
Meterkurven
 10
-24.21811067
 20
-63.64487665
 11
-24.14605632
 21
-64.00899413
  0
LINE
  8
Meterkurven
 10
-24.14605632
 20
-64.00899413
 11
-24.07181286
 21
-64.37318907
  0
LINE
  8
Meterkurven
 10
-24.07181286
 20
-64.37318907
 11
-23.99278385
 21
-64.73572664
  0
LINE
  8
Meterkurven
 10
-23.99278385
 20
-64.73572664
 11
-23.90637285
 21
-65.09487202
  0
LINE
  8
Meterkurven
 10
-23.90637285
 20
-65.09487202
 11
-23.80998344
 21
-65.4488904
  0
LINE
  8
Meterkurven
 10
-23.80998344
 20
-65.4488904
 11
-23.70101917
 21
-65.79604696
  0
LINE
  8
Meterkurven
 10
-23.70101917
 20
-65.79604696
 11
-23.57688362
 21
-66.13460687
  0
LINE
  8
Meterkurven
 10
-23.57688362
 20
-66.13460687
 11
-23.43498034
 21
-66.46283532
  0
LINE
  8
Meterkurven
 10
-23.43498034
 20
-66.46283532
 11
-23.27271292
 21
-66.7789975
  0
LINE
  8
Meterkurven
 10
-23.27271292
 20
-66.7789975
 11
-23.02276032
 21
-67.1901447
  0
LINE
  8
Meterkurven
 10
-23.02276032
 20
-67.1901447
 11
-22.745177
 21
-67.58497719
  0
LINE
  8
Meterkurven
 10
-22.745177
 20
-67.58497719
 11
-22.44301282
 21
-67.96539909
  0
LINE
  8
Meterkurven
 10
-22.44301282
 20
-67.96539909
 11
-22.11931768
 21
-68.33331452
  0
LINE
  8
Meterkurven
 10
-22.11931768
 20
-68.33331452
 11
-21.77714144
 21
-68.69062759
  0
LINE
  8
Meterkurven
 10
-21.77714144
 20
-68.69062759
 11
-21.41953399
 21
-69.03924242
  0
LINE
  8
Meterkurven
 10
-21.41953399
 20
-69.03924242
 11
-21.04954519
 21
-69.38106313
  0
LINE
  8
Meterkurven
 10
-21.04954519
 20
-69.38106313
 11
-20.67022494
 21
-69.71799383
  0
LINE
  8
Meterkurven
 10
-20.67022494
 20
-69.71799383
 11
-20.2846231
 21
-70.05193863
  0
LINE
  8
Meterkurven
 10
-20.2846231
 20
-70.05193863
 11
-19.89578956
 21
-70.38480166
  0
LINE
  8
Meterkurven
 10
-19.89578956
 20
-70.38480166
 11
-19.21398488
 21
-71.01700555
  0
LINE
  8
Meterkurven
 10
-19.21398488
 20
-71.01700555
 11
-18.57068392
 21
-71.70396089
  0
LINE
  8
Meterkurven
 10
-18.57068392
 20
-71.70396089
 11
-17.96335216
 21
-72.43151603
  0
LINE
  8
Meterkurven
 10
-17.96335216
 20
-72.43151603
 11
-17.38945506
 21
-73.18551934
  0
LINE
  8
Meterkurven
 10
-17.38945506
 20
-73.18551934
 11
-16.8464581
 21
-73.95181919
  0
LINE
  8
Meterkurven
 10
-16.8464581
 20
-73.95181919
 11
-16.33182674
 21
-74.71626395
  0
LINE
  8
Meterkurven
 10
-16.33182674
 20
-74.71626395
 11
-15.84302645
 21
-75.46470198
  0
LINE
  8
Meterkurven
 10
-15.84302645
 20
-75.46470198
 11
-15.3775227
 21
-76.18298165
  0
LINE
  8
Meterkurven
 10
-15.3775227
 20
-76.18298165
 11
-14.93278096
 21
-76.85695132
  0
LINE
  8
Meterkurven
 10
-14.93278096
 20
-76.85695132
 11
-14.5062667
 21
-77.47245936
  0
LINE
  8
Meterkurven
 10
-12.61181773
 20
-47.84114868
 11
-12.5756296
 21
-48.17488274
  0
LINE
  8
Meterkurven
 10
-12.5756296
 20
-48.17488274
 11
-12.5428255
 21
-48.53697456
  0
LINE
  8
Meterkurven
 10
-12.5428255
 20
-48.53697456
 11
-12.51325757
 21
-48.92254794
  0
LINE
  8
Meterkurven
 10
-12.51325757
 20
-48.92254794
 11
-12.48677796
 21
-49.3267267
  0
LINE
  8
Meterkurven
 10
-12.48677796
 20
-49.3267267
 11
-12.46323882
 21
-49.74463465
  0
LINE
  8
Meterkurven
 10
-12.46323882
 20
-49.74463465
 11
-12.44249231
 21
-50.1713956
  0
LINE
  8
Meterkurven
 10
-12.44249231
 20
-50.1713956
 11
-12.42439055
 21
-50.60213337
  0
LINE
  8
Meterkurven
 10
-12.42439055
 20
-50.60213337
 11
-12.40878572
 21
-51.03197178
  0
LINE
  8
Meterkurven
 10
-12.40878572
 20
-51.03197178
 11
-12.39552994
 21
-51.45603464
  0
LINE
  8
Meterkurven
 10
-12.39552994
 20
-51.45603464
 11
-12.38447538
 21
-51.86944575
  0
LINE
  8
Meterkurven
 10
-12.38447538
 20
-51.86944575
 11
-12.37429628
 21
-52.33918473
  0
LINE
  8
Meterkurven
 10
-12.37429628
 20
-52.33918473
 11
-12.3681522
 21
-52.80941103
  0
LINE
  8
Meterkurven
 10
-12.3681522
 20
-52.80941103
 11
-12.36798385
 21
-53.27952993
  0
LINE
  8
Meterkurven
 10
-12.36798385
 20
-53.27952993
 11
-12.37573197
 21
-53.74894673
  0
LINE
  8
Meterkurven
 10
-12.37573197
 20
-53.74894673
 11
-12.39333726
 21
-54.2170667
  0
LINE
  8
Meterkurven
 10
-12.39333726
 20
-54.2170667
 11
-12.42274045
 21
-54.68329513
  0
LINE
  8
Meterkurven
 10
-12.42274045
 20
-54.68329513
 11
-12.46588226
 21
-55.1470373
  0
LINE
  8
Meterkurven
 10
-12.46588226
 20
-55.1470373
 11
-12.52470341
 21
-55.6076985
  0
LINE
  8
Meterkurven
 10
-12.52470341
 20
-55.6076985
 11
-12.60114462
 21
-56.064684
  0
LINE
  8
Meterkurven
 10
-12.60114462
 20
-56.064684
 11
-12.69714661
 21
-56.51739909
  0
LINE
  8
Meterkurven
 10
-12.69714661
 20
-56.51739909
 11
-12.78137129
 21
-56.84967606
  0
LINE
  8
Meterkurven
 10
-12.78137129
 20
-56.84967606
 11
-12.87538496
 21
-57.17979011
  0
LINE
  8
Meterkurven
 10
-12.87538496
 20
-57.17979011
 11
-12.97761431
 21
-57.50812336
  0
LINE
  8
Meterkurven
 10
-12.97761431
 20
-57.50812336
 11
-13.086486
 21
-57.83505798
  0
LINE
  8
Meterkurven
 10
-13.086486
 20
-57.83505798
 11
-13.20042672
 21
-58.1609761
  0
LINE
  8
Meterkurven
 10
-13.20042672
 20
-58.1609761
 11
-13.31786313
 21
-58.48625987
  0
LINE
  8
Meterkurven
 10
-13.31786313
 20
-58.48625987
 11
-13.43722191
 21
-58.81129143
  0
LINE
  8
Meterkurven
 10
-13.43722191
 20
-58.81129143
 11
-13.55692972
 21
-59.13645291
  0
LINE
  8
Meterkurven
 10
-13.55692972
 20
-59.13645291
 11
-13.67541326
 21
-59.46212648
  0
LINE
  8
Meterkurven
 10
-13.67541326
 20
-59.46212648
 11
-13.79109918
 21
-59.78869426
  0
LINE
  8
Meterkurven
 10
-13.79109918
 20
-59.78869426
 11
-13.98861662
 21
-60.37026125
  0
LINE
  8
Meterkurven
 10
-13.98861662
 20
-60.37026125
 11
-14.17719206
 21
-60.95312952
  0
LINE
  8
Meterkurven
 10
-14.17719206
 20
-60.95312952
 11
-14.35701361
 21
-61.53763851
  0
LINE
  8
Meterkurven
 10
-14.35701361
 20
-61.53763851
 11
-14.52826939
 21
-62.12412765
  0
LINE
  8
Meterkurven
 10
-14.52826939
 20
-62.12412765
 11
-14.69114749
 21
-62.7129364
  0
LINE
  8
Meterkurven
 10
-14.69114749
 20
-62.7129364
 11
-14.84583605
 21
-63.3044042
  0
LINE
  8
Meterkurven
 10
-14.84583605
 20
-63.3044042
 11
-14.99252315
 21
-63.89887047
  0
LINE
  8
Meterkurven
 10
-14.99252315
 20
-63.89887047
 11
-15.13139692
 21
-64.49667468
  0
LINE
  8
Meterkurven
 10
-15.13139692
 20
-64.49667468
 11
-15.26264547
 21
-65.09815625
  0
LINE
  8
Meterkurven
 10
-15.26264547
 20
-65.09815625
 11
-15.3864569
 21
-65.70365463
  0
LINE
  8
Meterkurven
 10
-15.3864569
 20
-65.70365463
 11
-15.46060847
 21
-66.08235901
  0
LINE
  8
Meterkurven
 10
-15.46060847
 20
-66.08235901
 11
-15.53218774
 21
-66.46256307
  0
LINE
  8
Meterkurven
 10
-15.53218774
 20
-66.46256307
 11
-15.59899723
 21
-66.84374341
  0
LINE
  8
Meterkurven
 10
-15.59899723
 20
-66.84374341
 11
-15.65883947
 21
-67.22537664
  0
LINE
  8
Meterkurven
 10
-15.65883947
 20
-67.22537664
 11
-15.70951697
 21
-67.60693935
  0
LINE
  8
Meterkurven
 10
-15.70951697
 20
-67.60693935
 11
-15.74883226
 21
-67.98790816
  0
LINE
  8
Meterkurven
 10
-15.74883226
 20
-67.98790816
 11
-15.77458786
 21
-68.36775967
  0
LINE
  8
Meterkurven
 10
-15.77458786
 20
-68.36775967
 11
-15.78458629
 21
-68.74597048
  0
LINE
  8
Meterkurven
 10
-15.78458629
 20
-68.74597048
 11
-15.77663007
 21
-69.1220172
  0
LINE
  8
Meterkurven
 10
-15.77663007
 20
-69.1220172
 11
-15.74852173
 21
-69.49537644
  0
LINE
  8
Meterkurven
 10
-15.74852173
 20
-69.49537644
 11
-15.6744775
 21
-70.01270659
  0
LINE
  8
Meterkurven
 10
-15.6744775
 20
-70.01270659
 11
-15.56335544
 21
-70.52497223
  0
LINE
  8
Meterkurven
 10
-15.56335544
 20
-70.52497223
 11
-15.4184586
 21
-71.03204334
  0
LINE
  8
Meterkurven
 10
-15.4184586
 20
-71.03204334
 11
-15.24309001
 21
-71.53378991
  0
LINE
  8
Meterkurven
 10
-15.24309001
 20
-71.53378991
 11
-15.04055274
 21
-72.03008193
  0
LINE
  8
Meterkurven
 10
-15.04055274
 20
-72.03008193
 11
-14.81414983
 21
-72.52078938
  0
LINE
  8
Meterkurven
 10
-14.81414983
 20
-72.52078938
 11
-14.56718432
 21
-73.00578226
  0
LINE
  8
Meterkurven
 10
-14.56718432
 20
-73.00578226
 11
-14.30295927
 21
-73.48493055
  0
LINE
  8
Meterkurven
 10
-14.30295927
 20
-73.48493055
 11
-14.02477772
 21
-73.95810424
  0
LINE
  8
Meterkurven
 10
-14.02477772
 20
-73.95810424
 11
-13.73594272
 21
-74.42517332
  0
LINE
  8
Meterkurven
 10
-13.73594272
 20
-74.42517332
 11
-13.42990963
 21
-74.90349656
  0
LINE
  8
Meterkurven
 10
-13.42990963
 20
-74.90349656
 11
-13.11513971
 21
-75.38226619
  0
LINE
  8
Meterkurven
 10
-13.11513971
 20
-75.38226619
 11
-12.79295569
 21
-75.85787364
  0
LINE
  8
Meterkurven
 10
-12.79295569
 20
-75.85787364
 11
-12.46468028
 21
-76.32671035
  0
LINE
  8
Meterkurven
 10
-12.46468028
 20
-76.32671035
 11
-12.1316362
 21
-76.78516776
  0
LINE
  8
Meterkurven
 10
-12.1316362
 20
-76.78516776
 11
-11.79514618
 21
-77.22963732
  0
LINE
  8
Meterkurven
 10
-11.79514618
 20
-77.22963732
 11
-11.45653294
 21
-77.65651045
  0
LINE
  8
Meterkurven
 10
-11.45653294
 20
-77.65651045
 11
-11.11711919
 21
-78.06217861
  0
LINE
  8
Meterkurven
 10
-11.11711919
 20
-78.06217861
 11
-10.77822767
 21
-78.44303323
  0
LINE
  8
Meterkurven
 10
-10.77822767
 20
-78.44303323
 11
-10.44118107
 21
-78.79546574
  0
LINE
  8
Meterkurven
 10
11.64591355
 20
-41.36956293
 11
12.13654763
 21
-41.49101624
  0
LINE
  8
Meterkurven
 10
12.13654763
 20
-41.49101624
 11
12.65465104
 21
-41.62309322
  0
LINE
  8
Meterkurven
 10
12.65465104
 20
-41.62309322
 11
13.19462837
 21
-41.7657464
  0
LINE
  8
Meterkurven
 10
13.19462837
 20
-41.7657464
 11
13.75088419
 21
-41.9189283
  0
LINE
  8
Meterkurven
 10
13.75088419
 20
-41.9189283
 11
14.31782309
 21
-42.08259146
  0
LINE
  8
Meterkurven
 10
14.31782309
 20
-42.08259146
 11
14.88984965
 21
-42.25668841
  0
LINE
  8
Meterkurven
 10
14.88984965
 20
-42.25668841
 11
15.46136843
 21
-42.44117168
  0
LINE
  8
Meterkurven
 10
15.46136843
 20
-42.44117168
 11
16.02678403
 21
-42.6359938
  0
LINE
  8
Meterkurven
 10
16.02678403
 20
-42.6359938
 11
16.58050103
 21
-42.84110731
  0
LINE
  8
Meterkurven
 10
16.58050103
 20
-42.84110731
 11
17.11692399
 21
-43.05646473
  0
LINE
  8
Meterkurven
 10
17.11692399
 20
-43.05646473
 11
17.92274926
 21
-43.40736525
  0
LINE
  8
Meterkurven
 10
17.92274926
 20
-43.40736525
 11
18.72026628
 21
-43.77834624
  0
LINE
  8
Meterkurven
 10
18.72026628
 20
-43.77834624
 11
19.51092011
 21
-44.16607074
  0
LINE
  8
Meterkurven
 10
19.51092011
 20
-44.16607074
 11
20.29615586
 21
-44.56720182
  0
LINE
  8
Meterkurven
 10
20.29615586
 20
-44.56720182
 11
21.07741861
 21
-44.97840253
  0
LINE
  8
Meterkurven
 10
21.07741861
 20
-44.97840253
 11
21.85615344
 21
-45.39633595
  0
LINE
  8
Meterkurven
 10
21.85615344
 20
-45.39633595
 11
22.63380545
 21
-45.81766514
  0
LINE
  8
Meterkurven
 10
22.63380545
 20
-45.81766514
 11
23.41181972
 21
-46.23905315
  0
LINE
  8
Meterkurven
 10
23.41181972
 20
-46.23905315
 11
24.19164134
 21
-46.65716304
  0
LINE
  8
Meterkurven
 10
24.19164134
 20
-46.65716304
 11
24.9747154
 21
-47.06865788
  0
LINE
  8
Meterkurven
 10
24.9747154
 20
-47.06865788
 11
25.76038857
 21
-47.47535342
  0
LINE
  8
Meterkurven
 10
25.76038857
 20
-47.47535342
 11
26.54733878
 21
-47.87998951
  0
LINE
  8
Meterkurven
 10
26.54733878
 20
-47.87998951
 11
27.33617082
 21
-48.28069974
  0
LINE
  8
Meterkurven
 10
27.33617082
 20
-48.28069974
 11
28.12748944
 21
-48.6756177
  0
LINE
  8
Meterkurven
 10
28.12748944
 20
-48.6756177
 11
28.92189941
 21
-49.06287696
  0
LINE
  8
Meterkurven
 10
28.92189941
 20
-49.06287696
 11
29.72000549
 21
-49.44061112
  0
LINE
  8
Meterkurven
 10
29.72000549
 20
-49.44061112
 11
30.52241244
 21
-49.80695375
  0
LINE
  8
Meterkurven
 10
30.52241244
 20
-49.80695375
 11
31.32972503
 21
-50.16003845
  0
LINE
  8
Meterkurven
 10
31.32972503
 20
-50.16003845
 11
32.14254802
 21
-50.4979988
  0
LINE
  8
Meterkurven
 10
32.14254802
 20
-50.4979988
 11
32.96148616
 21
-50.81896839
  0
LINE
  8
Meterkurven
 10
32.96148616
 20
-50.81896839
 11
34.11888582
 21
-51.23309943
  0
LINE
  8
Meterkurven
 10
34.11888582
 20
-51.23309943
 11
35.28968964
 21
-51.60798484
  0
LINE
  8
Meterkurven
 10
35.28968964
 20
-51.60798484
 11
36.47164569
 21
-51.95085665
  0
LINE
  8
Meterkurven
 10
36.47164569
 20
-51.95085665
 11
37.66250209
 21
-52.26894691
  0
LINE
  8
Meterkurven
 10
37.66250209
 20
-52.26894691
 11
38.8600069
 21
-52.56948768
  0
LINE
  8
Meterkurven
 10
38.8600069
 20
-52.56948768
 11
40.06190823
 21
-52.859711
  0
LINE
  8
Meterkurven
 10
40.06190823
 20
-52.859711
 11
41.26595416
 21
-53.14684892
  0
LINE
  8
Meterkurven
 10
41.26595416
 20
-53.14684892
 11
42.46989278
 21
-53.43813349
  0
LINE
  8
Meterkurven
 10
42.46989278
 20
-53.43813349
 11
43.67147219
 21
-53.74079676
  0
LINE
  8
Meterkurven
 10
43.67147219
 20
-53.74079676
 11
44.86844046
 21
-54.06207079
  0
LINE
  8
Meterkurven
 10
44.86844046
 20
-54.06207079
 11
45.46085215
 21
-54.23385079
  0
LINE
  8
Meterkurven
 10
45.46085215
 20
-54.23385079
 11
46.0512442
 21
-54.41531355
  0
LINE
  8
Meterkurven
 10
46.0512442
 20
-54.41531355
 11
46.64023345
 21
-54.60234294
  0
LINE
  8
Meterkurven
 10
46.64023345
 20
-54.60234294
 11
47.22843672
 21
-54.79082282
  0
LINE
  8
Meterkurven
 10
47.22843672
 20
-54.79082282
 11
47.81647086
 21
-54.97663706
  0
LINE
  8
Meterkurven
 10
47.81647086
 20
-54.97663706
 11
48.40495268
 21
-55.15566951
  0
LINE
  8
Meterkurven
 10
48.40495268
 20
-55.15566951
 11
48.99449903
 21
-55.32380405
  0
LINE
  8
Meterkurven
 10
48.99449903
 20
-55.32380405
 11
49.58572673
 21
-55.47692455
  0
LINE
  8
Meterkurven
 10
49.58572673
 20
-55.47692455
 11
50.17925261
 21
-55.61091487
  0
LINE
  8
Meterkurven
 10
50.17925261
 20
-55.61091487
 11
50.77569351
 21
-55.72165887
  0
LINE
  8
Meterkurven
 10
50.77569351
 20
-55.72165887
 11
51.45723465
 21
-55.81174279
  0
LINE
  8
Meterkurven
 10
51.45723465
 20
-55.81174279
 11
52.15204274
 21
-55.86412127
  0
LINE
  8
Meterkurven
 10
52.15204274
 20
-55.86412127
 11
52.85583322
 21
-55.88218692
  0
LINE
  8
Meterkurven
 10
52.85583322
 20
-55.88218692
 11
53.56432155
 21
-55.86933231
  0
LINE
  8
Meterkurven
 10
53.56432155
 20
-55.86933231
 11
54.27322318
 21
-55.82895002
  0
LINE
  8
Meterkurven
 10
54.27322318
 20
-55.82895002
 11
54.97825358
 21
-55.76443266
  0
LINE
  8
Meterkurven
 10
54.97825358
 20
-55.76443266
 11
55.67512819
 21
-55.6791728
  0
LINE
  8
Meterkurven
 10
55.67512819
 20
-55.6791728
 11
56.35956247
 21
-55.57656303
  0
LINE
  8
Meterkurven
 10
56.35956247
 20
-55.57656303
 11
57.02727189
 21
-55.45999594
  0
LINE
  8
Meterkurven
 10
57.02727189
 20
-55.45999594
 11
57.67397188
 21
-55.33286412
  0
LINE
  8
Meterkurven
 10
37.75611058
 20
-36.00344986
 11
38.17160632
 21
-36.07945829
  0
LINE
  8
Meterkurven
 10
38.17160632
 20
-36.07945829
 11
38.61656907
 21
-36.16235787
  0
LINE
  8
Meterkurven
 10
38.61656907
 20
-36.16235787
 11
39.08559623
 21
-36.25170517
  0
LINE
  8
Meterkurven
 10
39.08559623
 20
-36.25170517
 11
39.57328521
 21
-36.34705674
  0
LINE
  8
Meterkurven
 10
39.57328521
 20
-36.34705674
 11
40.07423342
 21
-36.44796915
  0
LINE
  8
Meterkurven
 10
40.07423342
 20
-36.44796915
 11
40.58303827
 21
-36.55399893
  0
LINE
  8
Meterkurven
 10
40.58303827
 20
-36.55399893
 11
41.09429716
 21
-36.66470265
  0
LINE
  8
Meterkurven
 10
41.09429716
 20
-36.66470265
 11
41.60260749
 21
-36.77963686
  0
LINE
  8
Meterkurven
 10
41.60260749
 20
-36.77963686
 11
42.10256668
 21
-36.89835811
  0
LINE
  8
Meterkurven
 10
42.10256668
 20
-36.89835811
 11
42.58877213
 21
-37.02042296
  0
LINE
  8
Meterkurven
 10
42.58877213
 20
-37.02042296
 11
43.73453933
 21
-37.32875169
  0
LINE
  8
Meterkurven
 10
43.73453933
 20
-37.32875169
 11
44.87493414
 21
-37.65700104
  0
LINE
  8
Meterkurven
 10
44.87493414
 20
-37.65700104
 11
46.01084302
 21
-38.00198809
  0
LINE
  8
Meterkurven
 10
46.01084302
 20
-38.00198809
 11
47.14315242
 21
-38.36052991
  0
LINE
  8
Meterkurven
 10
47.14315242
 20
-38.36052991
 11
48.27274881
 21
-38.72944357
  0
LINE
  8
Meterkurven
 10
48.27274881
 20
-38.72944357
 11
49.40051863
 21
-39.10554614
  0
LINE
  8
Meterkurven
 10
49.40051863
 20
-39.10554614
 11
50.52734836
 21
-39.48565468
  0
LINE
  8
Meterkurven
 10
50.52734836
 20
-39.48565468
 11
51.65412444
 21
-39.86658628
  0
LINE
  8
Meterkurven
 10
51.65412444
 20
-39.86658628
 11
52.78173333
 21
-40.245158
  0
LINE
  8
Meterkurven
 10
52.78173333
 20
-40.245158
 11
53.9110615
 21
-40.61818691
  0
LINE
  8
Meterkurven
 10
53.9110615
 20
-40.61818691
 11
54.22096995
 21
-40.71719581
  0
LINE
  8
Meterkurven
 10
54.22096995
 20
-40.71719581
 11
54.53200337
 21
-40.81310589
  0
LINE
  8
Meterkurven
 10
54.53200337
 20
-40.81310589
 11
54.84367553
 21
-40.90716476
  0
LINE
  8
Meterkurven
 10
54.84367553
 20
-40.90716476
 11
55.15550023
 21
-41.00062002
  0
LINE
  8
Meterkurven
 10
55.15550023
 20
-41.00062002
 11
55.46699123
 21
-41.09471928
  0
LINE
  8
Meterkurven
 10
55.46699123
 20
-41.09471928
 11
55.77766231
 21
-41.19071014
  0
LINE
  8
Meterkurven
 10
55.77766231
 20
-41.19071014
 11
56.08702726
 21
-41.2898402
  0
LINE
  8
Meterkurven
 10
56.08702726
 20
-41.2898402
 11
56.39459984
 21
-41.39335707
  0
LINE
  8
Meterkurven
 10
56.39459984
 20
-41.39335707
 11
56.69989385
 21
-41.50250835
  0
LINE
  8
Meterkurven
 10
56.69989385
 20
-41.50250835
 11
57.00242306
 21
-41.61854164
  0
LINE
  8
Meterkurven
 10
57.00242306
 20
-41.61854164
 11
57.30514388
 21
-41.74135795
  0
LINE
  8
Meterkurven
 10
57.30514388
 20
-41.74135795
 11
57.60696691
 21
-41.86878387
  0
LINE
  8
Meterkurven
 10
57.60696691
 20
-41.86878387
 11
57.90724466
 21
-42.00130847
  0
LINE
  8
Meterkurven
 10
57.90724466
 20
-42.00130847
 11
58.20532968
 21
-42.13942085
  0
LINE
  8
Meterkurven
 10
58.20532968
 20
-42.13942085
 11
58.50057449
 21
-42.28361011
  0
LINE
  8
Meterkurven
 10
58.50057449
 20
-42.28361011
 11
58.79233163
 21
-42.43436532
  0
LINE
  8
Meterkurven
 10
58.79233163
 20
-42.43436532
 11
59.07995363
 21
-42.59217559
  0
LINE
  8
Meterkurven
 10
59.07995363
 20
-42.59217559
 11
59.36279302
 21
-42.75752999
  0
LINE
  8
Meterkurven
 10
59.36279302
 20
-42.75752999
 11
59.64020233
 21
-42.93091763
  0
LINE
  8
Meterkurven
 10
59.64020233
 20
-42.93091763
 11
59.9115341
 21
-43.11282758
  0
LINE
  8
Meterkurven
 10
59.9115341
 20
-43.11282758
 11
60.05825674
 21
-43.21412804
  0
LINE
  8
Meterkurven
 10
60.05825674
 20
-43.21412804
 11
60.20616408
 21
-43.31616667
  0
LINE
  8
Meterkurven
 10
60.20616408
 20
-43.31616667
 11
60.35382225
 21
-43.41986793
  0
LINE
  8
Meterkurven
 10
60.35382225
 20
-43.41986793
 11
60.49979741
 21
-43.52615629
  0
LINE
  8
Meterkurven
 10
60.49979741
 20
-43.52615629
 11
60.64265568
 21
-43.63595619
  0
LINE
  8
Meterkurven
 10
60.64265568
 20
-43.63595619
 11
60.78096323
 21
-43.7501921
  0
LINE
  8
Meterkurven
 10
60.78096323
 20
-43.7501921
 11
60.91328618
 21
-43.86978847
  0
LINE
  8
Meterkurven
 10
60.91328618
 20
-43.86978847
 11
61.03819069
 21
-43.99566977
  0
LINE
  8
Meterkurven
 10
61.03819069
 20
-43.99566977
 11
61.15424289
 21
-44.12876046
  0
LINE
  8
Meterkurven
 10
61.15424289
 20
-44.12876046
 11
61.26000893
 21
-44.26998498
  0
LINE
  8
Meterkurven
 10
61.26000893
 20
-44.26998498
 11
61.27544309
 21
-44.29274078
  0
LINE
  8
Meterkurven
 10
61.27544309
 20
-44.29274078
 11
61.29063598
 21
-44.31574854
  0
LINE
  8
Meterkurven
 10
61.29063598
 20
-44.31574854
 11
61.3055969
 21
-44.338977
  0
LINE
  8
Meterkurven
 10
61.3055969
 20
-44.338977
 11
61.32033513
 21
-44.36239493
  0
LINE
  8
Meterkurven
 10
61.32033513
 20
-44.36239493
 11
61.33485996
 21
-44.38597109
  0
LINE
  8
Meterkurven
 10
61.33485996
 20
-44.38597109
 11
61.34918066
 21
-44.40967423
  0
LINE
  8
Meterkurven
 10
61.34918066
 20
-44.40967423
 11
61.36330653
 21
-44.43347311
  0
LINE
  8
Meterkurven
 10
61.36330653
 20
-44.43347311
 11
61.37724684
 21
-44.4573365
  0
LINE
  8
Meterkurven
 10
61.37724684
 20
-44.4573365
 11
61.3910109
 21
-44.48123315
  0
LINE
  8
Meterkurven
 10
61.3910109
 20
-44.48123315
 11
61.40460797
 21
-44.50513182
  0
LINE
  8
Meterkurven
 10
39.65599856
 20
-23.91109894
 11
39.65751117
 21
-24.07246746
  0
LINE
  8
Meterkurven
 10
39.65751117
 20
-24.07246746
 11
39.66610893
 21
-24.23480509
  0
LINE
  8
Meterkurven
 10
39.66610893
 20
-24.23480509
 11
39.68254178
 21
-24.39639161
  0
LINE
  8
Meterkurven
 10
39.68254178
 20
-24.39639161
 11
39.70755966
 21
-24.55550677
  0
LINE
  8
Meterkurven
 10
39.70755966
 20
-24.55550677
 11
39.74191249
 21
-24.71043033
  0
LINE
  8
Meterkurven
 10
39.74191249
 20
-24.71043033
 11
39.78635021
 21
-24.85944207
  0
LINE
  8
Meterkurven
 10
39.78635021
 20
-24.85944207
 11
39.84162277
 21
-25.00082175
  0
LINE
  8
Meterkurven
 10
39.84162277
 20
-25.00082175
 11
39.90848008
 21
-25.13284914
  0
LINE
  8
Meterkurven
 10
39.90848008
 20
-25.13284914
 11
39.9876721
 21
-25.25380399
  0
LINE
  8
Meterkurven
 10
39.9876721
 20
-25.25380399
 11
40.07994876
 21
-25.36196608
  0
LINE
  8
Meterkurven
 10
40.07994876
 20
-25.36196608
 11
40.16899537
 21
-25.44450893
  0
LINE
  8
Meterkurven
 10
40.16899537
 20
-25.44450893
 11
40.26695884
 21
-25.52071754
  0
LINE
  8
Meterkurven
 10
40.26695884
 20
-25.52071754
 11
40.37244678
 21
-25.59124329
  0
LINE
  8
Meterkurven
 10
40.37244678
 20
-25.59124329
 11
40.48406682
 21
-25.65673753
  0
LINE
  8
Meterkurven
 10
40.48406682
 20
-25.65673753
 11
40.60042656
 21
-25.71785161
  0
LINE
  8
Meterkurven
 10
40.60042656
 20
-25.71785161
 11
40.72013363
 21
-25.7752369
  0
LINE
  8
Meterkurven
 10
40.72013363
 20
-25.7752369
 11
40.84179564
 21
-25.82954477
  0
LINE
  8
Meterkurven
 10
40.84179564
 20
-25.82954477
 11
40.96402021
 21
-25.88142657
  0
LINE
  8
Meterkurven
 10
40.96402021
 20
-25.88142657
 11
41.08541496
 21
-25.93153365
  0
LINE
  8
Meterkurven
 10
41.08541496
 20
-25.93153365
 11
41.2045875
 21
-25.98051739
  0
LINE
  8
Meterkurven
 10
41.2045875
 20
-25.98051739
 11
41.60778607
 21
-26.12756964
  0
LINE
  8
Meterkurven
 10
41.60778607
 20
-26.12756964
 11
42.02108595
 21
-26.24377222
  0
LINE
  8
Meterkurven
 10
42.02108595
 20
-26.24377222
 11
42.44266248
 21
-26.33497054
  0
LINE
  8
Meterkurven
 10
42.44266248
 20
-26.33497054
 11
42.87069098
 21
-26.40701001
  0
LINE
  8
Meterkurven
 10
42.87069098
 20
-26.40701001
 11
43.30334677
 21
-26.46573604
  0
LINE
  8
Meterkurven
 10
43.30334677
 20
-26.46573604
 11
43.73880518
 21
-26.51699406
  0
LINE
  8
Meterkurven
 10
43.73880518
 20
-26.51699406
 11
44.17524152
 21
-26.56662947
  0
LINE
  8
Meterkurven
 10
44.17524152
 20
-26.56662947
 11
44.61083113
 21
-26.62048769
  0
LINE
  8
Meterkurven
 10
44.61083113
 20
-26.62048769
 11
45.04374933
 21
-26.68441414
  0
LINE
  8
Meterkurven
 10
45.04374933
 20
-26.68441414
 11
45.47217143
 21
-26.76425422
  0
LINE
  8
Meterkurven
 10
45.47217143
 20
-26.76425422
 11
46.00387002
 21
-26.88192533
  0
LINE
  8
Meterkurven
 10
46.00387002
 20
-26.88192533
 11
46.53282239
 21
-27.00957626
  0
LINE
  8
Meterkurven
 10
46.53282239
 20
-27.00957626
 11
47.0592035
 21
-27.14645047
  0
LINE
  8
Meterkurven
 10
47.0592035
 20
-27.14645047
 11
47.58318832
 21
-27.29179143
  0
LINE
  8
Meterkurven
 10
47.58318832
 20
-27.29179143
 11
48.10495184
 21
-27.4448426
  0
LINE
  8
Meterkurven
 10
48.10495184
 20
-27.4448426
 11
48.62466903
 21
-27.60484745
  0
LINE
  8
Meterkurven
 10
48.62466903
 20
-27.60484745
 11
49.14251486
 21
-27.77104943
  0
LINE
  8
Meterkurven
 10
49.14251486
 20
-27.77104943
 11
49.65866429
 21
-27.94269203
  0
LINE
  8
Meterkurven
 10
49.65866429
 20
-27.94269203
 11
50.17329232
 21
-28.11901869
  0
LINE
  8
Meterkurven
 10
50.17329232
 20
-28.11901869
 11
50.68657391
 21
-28.29927288
  0
LINE
  8
Meterkurven
 10
50.68657391
 20
-28.29927288
 11
51.14253514
 21
-28.46290806
  0
LINE
  8
Meterkurven
 10
51.14253514
 20
-28.46290806
 11
51.5972781
 21
-28.63006347
  0
LINE
  8
Meterkurven
 10
51.5972781
 20
-28.63006347
 11
52.05053891
 21
-28.80118522
  0
LINE
  8
Meterkurven
 10
52.05053891
 20
-28.80118522
 11
52.50205373
 21
-28.97671942
  0
LINE
  8
Meterkurven
 10
52.50205373
 20
-28.97671942
 11
52.95155869
 21
-29.15711218
  0
LINE
  8
Meterkurven
 10
52.95155869
 20
-29.15711218
 11
53.39878994
 21
-29.34280959
  0
LINE
  8
Meterkurven
 10
53.39878994
 20
-29.34280959
 11
53.84348362
 21
-29.53425776
  0
LINE
  8
Meterkurven
 10
53.84348362
 20
-29.53425776
 11
54.28537587
 21
-29.7319028
  0
LINE
  8
Meterkurven
 10
54.28537587
 20
-29.7319028
 11
54.72420284
 21
-29.93619081
  0
LINE
  8
Meterkurven
 10
54.72420284
 20
-29.93619081
 11
55.15970067
 21
-30.14756789
  0
LINE
  8
Meterkurven
 10
55.15970067
 20
-30.14756789
 11
55.42161831
 21
-30.28208255
  0
LINE
  8
Meterkurven
 10
55.42161831
 20
-30.28208255
 11
55.68068004
 21
-30.42283019
  0
LINE
  8
Meterkurven
 10
55.68068004
 20
-30.42283019
 11
55.93776746
 21
-30.56778905
  0
LINE
  8
Meterkurven
 10
55.93776746
 20
-30.56778905
 11
56.19376215
 21
-30.71493735
  0
LINE
  8
Meterkurven
 10
56.19376215
 20
-30.71493735
 11
56.44954571
 21
-30.86225332
  0
LINE
  8
Meterkurven
 10
56.44954571
 20
-30.86225332
 11
56.70599971
 21
-31.00771518
  0
LINE
  8
Meterkurven
 10
56.70599971
 20
-31.00771518
 11
56.96400576
 21
-31.14930116
  0
LINE
  8
Meterkurven
 10
56.96400576
 20
-31.14930116
 11
57.22444543
 21
-31.28498948
  0
LINE
  8
Meterkurven
 10
57.22444543
 20
-31.28498948
 11
57.48820032
 21
-31.41275838
  0
LINE
  8
Meterkurven
 10
57.48820032
 20
-31.41275838
 11
57.75615202
 21
-31.53058606
  0
LINE
  8
Meterkurven
 10
57.75615202
 20
-31.53058606
 11
57.99846053
 21
-31.62739734
  0
LINE
  8
Meterkurven
 10
57.99846053
 20
-31.62739734
 11
58.24294273
 21
-31.71807764
  0
LINE
  8
Meterkurven
 10
58.24294273
 20
-31.71807764
 11
58.48950673
 21
-31.80325387
  0
LINE
  8
Meterkurven
 10
58.48950673
 20
-31.80325387
 11
58.73806062
 21
-31.88355292
  0
LINE
  8
Meterkurven
 10
58.73806062
 20
-31.88355292
 11
58.98851252
 21
-31.95960168
  0
LINE
  8
Meterkurven
 10
58.98851252
 20
-31.95960168
 11
59.24077052
 21
-32.03202705
  0
LINE
  8
Meterkurven
 10
59.24077052
 20
-32.03202705
 11
59.49474272
 21
-32.10145593
  0
LINE
  8
Meterkurven
 10
59.49474272
 20
-32.10145593
 11
59.75033723
 21
-32.16851522
  0
LINE
  8
Meterkurven
 10
59.75033723
 20
-32.16851522
 11
60.00746214
 21
-32.23383179
  0
LINE
  8
Meterkurven
 10
60.00746214
 20
-32.23383179
 11
60.26602556
 21
-32.29803256
  0
LINE
  8
Meterkurven
 10
60.26602556
 20
-32.29803256
 11
60.71360306
 21
-32.4022761
  0
LINE
  8
Meterkurven
 10
60.71360306
 20
-32.4022761
 11
61.16739255
 21
-32.50085439
  0
LINE
  8
Meterkurven
 10
61.16739255
 20
-32.50085439
 11
61.62293392
 21
-32.59985046
  0
LINE
  8
Meterkurven
 10
61.62293392
 20
-32.59985046
 11
62.07576707
 21
-32.70534733
  0
LINE
  8
Meterkurven
 10
62.07576707
 20
-32.70534733
 11
62.52143187
 21
-32.82342803
  0
LINE
  8
Meterkurven
 10
62.52143187
 20
-32.82342803
 11
62.95546823
 21
-32.96017558
  0
LINE
  8
Meterkurven
 10
48.3036273
 20
-11.22510683
 11
48.51790953
 21
-11.51620323
  0
LINE
  8
Meterkurven
 10
48.51790953
 20
-11.51620323
 11
48.7470348
 21
-11.8135774
  0
LINE
  8
Meterkurven
 10
48.7470348
 20
-11.8135774
 11
48.9903883
 21
-12.11215683
  0
LINE
  8
Meterkurven
 10
48.9903883
 20
-12.11215683
 11
49.24735521
 21
-12.40686903
  0
LINE
  8
Meterkurven
 10
49.24735521
 20
-12.40686903
 11
49.51732071
 21
-12.69264149
  0
LINE
  8
Meterkurven
 10
49.51732071
 20
-12.69264149
 11
  49.79967
 21
-12.96440171
  0
LINE
  8
Meterkurven
 10
  49.79967
 20
-12.96440171
 11
50.09378824
 21
-13.21707719
  0
LINE
  8
Meterkurven
 10
50.09378824
 20
-13.21707719
 11
50.39906064
 21
-13.44559544
  0
LINE
  8
Meterkurven
 10
50.39906064
 20
-13.44559544
 11
50.71487236
 21
-13.64488395
  0
LINE
  8
Meterkurven
 10
50.71487236
 20
-13.64488395
 11
51.04060859
 21
-13.80987022
  0
LINE
  8
Meterkurven
 10
51.04060859
 20
-13.80987022
 11
51.46075336
 21
-13.96955456
  0
LINE
  8
Meterkurven
 10
51.46075336
 20
-13.96955456
 11
51.89934348
 21
-14.09187523
  0
LINE
  8
Meterkurven
 10
51.89934348
 20
-14.09187523
 11
52.35257666
 21
-14.18518181
  0
LINE
  8
Meterkurven
 10
52.35257666
 20
-14.18518181
 11
52.81665058
 21
-14.25782392
  0
LINE
  8
Meterkurven
 10
52.81665058
 20
-14.25782392
 11
53.28776293
 21
-14.31815114
  0
LINE
  8
Meterkurven
 10
53.28776293
 20
-14.31815114
 11
53.76211142
 21
-14.37451308
  0
LINE
  8
Meterkurven
 10
53.76211142
 20
-14.37451308
 11
54.23589373
 21
-14.43525932
  0
LINE
  8
Meterkurven
 10
54.23589373
 20
-14.43525932
 11
54.70530755
 21
-14.50873948
  0
LINE
  8
Meterkurven
 10
54.70530755
 20
-14.50873948
 11
55.16655058
 21
-14.60330315
  0
LINE
  8
Meterkurven
 10
55.16655058
 20
-14.60330315
 11
55.6158205
 21
-14.72729992
  0
LINE
  8
Meterkurven
 10
55.6158205
 20
-14.72729992
 11
56.39279094
 21
-15.00301775
  0
LINE
  8
Meterkurven
 10
56.39279094
 20
-15.00301775
 11
57.15471777
 21
-15.3209232
  0
LINE
  8
Meterkurven
 10
57.15471777
 20
-15.3209232
 11
57.90503984
 21
-15.6716314
  0
LINE
  8
Meterkurven
 10
57.90503984
 20
-15.6716314
 11
58.64719599
 21
-16.04575746
  0
LINE
  8
Meterkurven
 10
58.64719599
 20
-16.04575746
 11
59.38462509
 21
-16.4339165
  0
LINE
  8
Meterkurven
 10
59.38462509
 20
-16.4339165
 11
60.12076598
 21
-16.82672365
  0
LINE
  8
Meterkurven
 10
60.12076598
 20
-16.82672365
 11
60.85905751
 21
-17.21479403
  0
LINE
  8
Meterkurven
 10
60.85905751
 20
-17.21479403
 11
61.60293852
 21
-17.58874274
  0
LINE
  8
Meterkurven
 10
61.60293852
 20
-17.58874274
 11
62.35584788
 21
-17.93918493
  0
LINE
  8
Meterkurven
 10
62.35584788
 20
-17.93918493
 11
63.12122443
 21
-18.25673569
  0
LINE
  8
Meterkurven
 10
63.12122443
 20
-18.25673569
 11
64.09588192
 21
-18.61788899
  0
LINE
  8
Meterkurven
 10
64.09588192
 20
-18.61788899
 11
65.08051453
 21
-18.95425587
  0
LINE
  8
Meterkurven
 10
65.08051453
 20
-18.95425587
 11
66.07414845
 21
-19.26654258
  0
LINE
  8
Meterkurven
 10
66.07414845
 20
-19.26654258
 11
67.07580989
 21
-19.55545539
  0
LINE
  8
Meterkurven
 10
67.07580989
 20
-19.55545539
 11
68.08452506
 21
-19.82170056
  0
LINE
  8
Meterkurven
 10
68.08452506
 20
-19.82170056
 11
69.09932016
 21
-20.06598434
  0
LINE
  8
Meterkurven
 10
69.09932016
 20
-20.06598434
 11
70.11922138
 21
-20.28901298
  0
LINE
  8
Meterkurven
 10
70.11922138
 20
-20.28901298
 11
71.14325495
 21
-20.49149275
  0
LINE
  8
Meterkurven
 10
71.14325495
 20
-20.49149275
 11
72.17044705
 21
-20.67412991
  0
LINE
  8
Meterkurven
 10
72.17044705
 20
-20.67412991
 11
73.1998239
 21
-20.83763072
  0
LINE
  8
Meterkurven
 10
73.1998239
 20
-20.83763072
 11
74.23058903
 21
-20.97889618
  0
LINE
  8
Meterkurven
 10
74.23058903
 20
-20.97889618
 11
75.26436093
 21
-21.09896926
  0
LINE
  8
Meterkurven
 10
75.26436093
 20
-21.09896926
 11
76.30010808
 21
-21.20421833
  0
LINE
  8
Meterkurven
 10
76.30010808
 20
-21.20421833
 11
77.33679894
 21
-21.30101178
  0
LINE
  8
Meterkurven
 10
77.33679894
 20
-21.30101178
 11
78.37340199
 21
-21.395718
  0
LINE
  8
Meterkurven
 10
78.37340199
 20
-21.395718
 11
79.4088857
 21
-21.49470537
  0
LINE
  8
Meterkurven
 10
79.4088857
 20
-21.49470537
 11
80.44221854
 21
-21.60434229
  0
LINE
  8
Meterkurven
 10
80.44221854
 20
-21.60434229
 11
81.47236897
 21
-21.73099713
  0
LINE
  8
Meterkurven
 10
81.47236897
 20
-21.73099713
 11
82.49830547
 21
-21.88103828
  0
LINE
  8
Meterkurven
 10
82.49830547
 20
-21.88103828
 11
83.5189965
 21
-22.06083414
  0
LINE
  8
Meterkurven
 10
83.5189965
 20
-22.06083414
 11
84.5937944
 21
-22.27947525
  0
LINE
  8
Meterkurven
 10
84.5937944
 20
-22.27947525
 11
85.66462731
 21
-22.51944521
  0
LINE
  8
Meterkurven
 10
85.66462731
 20
-22.51944521
 11
86.73100158
 21
-22.78136517
  0
LINE
  8
Meterkurven
 10
86.73100158
 20
-22.78136517
 11
87.79242356
 21
-23.06585632
  0
LINE
  8
Meterkurven
 10
87.79242356
 20
-23.06585632
 11
88.84839962
 21
-23.37353982
  0
LINE
  8
Meterkurven
 10
88.84839962
 20
-23.37353982
 11
89.89843609
 21
-23.70503684
  0
LINE
  8
Meterkurven
 10
89.89843609
 20
-23.70503684
 11
90.94203934
 21
-24.06096855
  0
LINE
  8
Meterkurven
 10
90.94203934
 20
-24.06096855
 11
91.97871572
 21
-24.44195612
  0
LINE
  8
Meterkurven
 10
91.97871572
 20
-24.44195612
 11
93.00797159
 21
-24.84862073
  0
LINE
  8
Meterkurven
 10
93.00797159
 20
-24.84862073
 11
94.02931328
 21
-25.28158354
  0
LINE
  8
Meterkurven
 10
94.02931328
 20
-25.28158354
 11
95.23085165
 21
-25.84789074
  0
LINE
  8
Meterkurven
 10
95.23085165
 20
-25.84789074
 11
96.41676451
 21
-26.46884167
  0
LINE
  8
Meterkurven
 10
96.41676451
 20
-26.46884167
 11
97.59220038
 21
-27.12159648
  0
LINE
  8
Meterkurven
 10
97.59220038
 20
-27.12159648
 11
98.7623078
 21
-27.7833153
  0
LINE
  8
Meterkurven
 10
98.7623078
 20
-27.7833153
 11
99.93223529
 21
-28.43115826
  0
LINE
  8
Meterkurven
 10
99.93223529
 20
-28.43115826
 11
101.1071314
 21
-29.0422855
  0
LINE
  8
Meterkurven
 10
101.1071314
 20
-29.0422855
 11
102.2921446
 21
-29.59385716
  0
LINE
  8
Meterkurven
 10
102.2921446
 20
-29.59385716
 11
103.4924235
 21
-30.06303338
  0
LINE
  8
Meterkurven
 10
103.4924235
 20
-30.06303338
 11
104.7131165
 21
-30.42697428
  0
LINE
  8
Meterkurven
 10
104.7131165
 20
-30.42697428
 11
105.9593723
 21
-30.66284001
  0
LINE
  8
Meterkurven
 10
105.9593723
 20
-30.66284001
 11
106.3810318
 21
-30.70582367
  0
LINE
  8
Meterkurven
 10
106.3810318
 20
-30.70582367
 11
106.8107639
 21
-30.72777314
  0
LINE
  8
Meterkurven
 10
106.8107639
 20
-30.72777314
 11
107.246418
 21
-30.73109404
  0
LINE
  8
Meterkurven
 10
107.246418
 20
-30.73109404
 11
107.6858434
 21
-30.71819198
  0
LINE
  8
Meterkurven
 10
107.6858434
 20
-30.71819198
 11
108.1268896
 21
-30.69147257
  0
LINE
  8
Meterkurven
 10
108.1268896
 20
-30.69147257
 11
108.5674059
 21
-30.65334145
  0
LINE
  8
Meterkurven
 10
108.5674059
 20
-30.65334145
 11
109.0052416
 21
-30.60620422
  0
LINE
  8
Meterkurven
 10
109.0052416
 20
-30.60620422
 11
109.4382463
 21
-30.55246649
  0
LINE
  8
Meterkurven
 10
109.4382463
 20
-30.55246649
 11
109.8642692
 21
-30.4945339
  0
LINE
  8
Meterkurven
 10
109.8642692
 20
-30.4945339
 11
110.2811597
 21
-30.43481204
  0
LINE
  8
Meterkurven
 10
80.4991425
 20
38.13445243
 11
80.68714623
 21
37.71641939
  0
LINE
  8
Meterkurven
 10
80.68714623
 20
37.71641939
 11
80.88075535
 21
37.27250388
  0
LINE
  8
Meterkurven
 10
80.88075535
 20
37.27250388
 11
81.07738963
 21
36.80681339
  0
LINE
  8
Meterkurven
 10
81.07738963
 20
36.80681339
 11
81.27446882
 21
36.3234554
  0
LINE
  8
Meterkurven
 10
81.27446882
 20
36.3234554
 11
81.46941272
 21
35.82653741
  0
LINE
  8
Meterkurven
 10
81.46941272
 20
35.82653741
 11
81.65964107
 21
35.32016691
  0
LINE
  8
Meterkurven
 10
81.65964107
 20
35.32016691
 11
81.84257366
 21
34.80845139
  0
LINE
  8
Meterkurven
 10
81.84257366
 20
34.80845139
 11
82.01563025
 21
34.29549835
  0
LINE
  8
Meterkurven
 10
82.01563025
 20
34.29549835
 11
82.17623061
 21
33.78541526
  0
LINE
  8
Meterkurven
 10
82.17623061
 20
33.78541526
 11
82.32179451
 21
33.28230963
  0
LINE
  8
Meterkurven
 10
82.32179451
 20
33.28230963
 11
82.55233094
 21
32.38978718
  0
LINE
  8
Meterkurven
 10
82.55233094
 20
32.38978718
 11
82.75624279
 21
31.49028391
  0
LINE
  8
Meterkurven
 10
82.75624279
 20
31.49028391
 11
82.9360958
 21
30.58465684
  0
LINE
  8
Meterkurven
 10
82.9360958
 20
30.58465684
 11
83.09445571
 21
 29.673763
  0
LINE
  8
Meterkurven
 10
83.09445571
 20
 29.673763
 11
83.23388827
 21
28.75845939
  0
LINE
  8
Meterkurven
 10
83.23388827
 20
28.75845939
 11
83.35695921
 21
27.83960303
  0
LINE
  8
Meterkurven
 10
83.35695921
 20
27.83960303
 11
83.46623429
 21
26.91805095
  0
LINE
  8
Meterkurven
 10
83.46623429
 20
26.91805095
 11
83.56427925
 21
25.99466015
  0
LINE
  8
Meterkurven
 10
83.56427925
 20
25.99466015
 11
83.65365982
 21
25.07028766
  0
LINE
  8
Meterkurven
 10
83.65365982
 20
25.07028766
 11
83.73694175
 21
24.1457905
  0
LINE
  8
Meterkurven
 10
83.73694175
 20
24.1457905
 11
83.80479653
 21
23.38132524
  0
LINE
  8
Meterkurven
 10
83.80479653
 20
23.38132524
 11
83.8722864
 21
22.61737785
  0
LINE
  8
Meterkurven
 10
83.8722864
 20
22.61737785
 11
83.93658673
 21
21.85376558
  0
LINE
  8
Meterkurven
 10
83.93658673
 20
21.85376558
 11
83.99487289
 21
21.09030568
  0
LINE
  8
Meterkurven
 10
83.99487289
 20
21.09030568
 11
84.04432026
 21
20.32681541
  0
LINE
  8
Meterkurven
 10
84.04432026
 20
20.32681541
 11
84.08210419
 21
19.56311202
  0
LINE
  8
Meterkurven
 10
84.08210419
 20
19.56311202
 11
84.10540007
 21
18.79901275
  0
LINE
  8
Meterkurven
 10
84.10540007
 20
18.79901275
 11
84.11138325
 21
18.03433487
  0
LINE
  8
Meterkurven
 10
84.11138325
 20
18.03433487
 11
84.09722912
 21
17.26889562
  0
LINE
  8
Meterkurven
 10
84.09722912
 20
17.26889562
 11
84.06011303
 21
16.50251225
  0
LINE
  8
Meterkurven
 10
84.06011303
 20
16.50251225
 11
83.9918119
 21
15.73462195
  0
LINE
  8
Meterkurven
 10
83.9918119
 20
15.73462195
 11
83.89328729
 21
14.96969306
  0
LINE
  8
Meterkurven
 10
83.89328729
 20
14.96969306
 11
83.77496721
 21
14.20697115
  0
LINE
  8
Meterkurven
 10
83.77496721
 20
14.20697115
 11
83.64727962
 21
13.44570182
  0
LINE
  8
Meterkurven
 10
83.64727962
 20
13.44570182
 11
83.52065252
 21
12.68513065
  0
LINE
  8
Meterkurven
 10
83.52065252
 20
12.68513065
 11
83.40551388
 21
11.92450324
  0
LINE
  8
Meterkurven
 10
83.40551388
 20
11.92450324
 11
83.31229169
 21
11.16306517
  0
LINE
  8
Meterkurven
 10
83.31229169
 20
11.16306517
 11
83.25141393
 21
10.40006204
  0
LINE
  8
Meterkurven
 10
83.25141393
 20
10.40006204
 11
83.23330859
 21
9.63473943
  0
LINE
  8
Meterkurven
 10
83.23330859
 20
9.63473943
 11
83.26840364
 21
8.866342928
  0
LINE
  8
Meterkurven
 10
83.26840364
 20
8.866342928
 11
83.32884284
 21
8.290953555
  0
LINE
  8
Meterkurven
 10
83.32884284
 20
8.290953555
 11
83.41619794
 21
7.699725923
  0
LINE
  8
Meterkurven
 10
83.41619794
 20
7.699725923
 11
83.53270136
 21
7.103034531
  0
LINE
  8
Meterkurven
 10
83.53270136
 20
7.103034531
 11
83.68058553
 21
6.511253876
  0
LINE
  8
Meterkurven
 10
83.68058553
 20
6.511253876
 11
83.86208285
 21
5.934758457
  0
LINE
  8
Meterkurven
 10
83.86208285
 20
5.934758457
 11
84.07942575
 21
5.383922772
  0
LINE
  8
Meterkurven
 10
84.07942575
 20
5.383922772
 11
84.33484664
 21
4.869121319
  0
LINE
  8
Meterkurven
 10
84.33484664
 20
4.869121319
 11
84.63057795
 21
4.400728597
  0
LINE
  8
Meterkurven
 10
84.63057795
 20
4.400728597
 11
84.96885209
 21
3.989119104
  0
LINE
  8
Meterkurven
 10
84.96885209
 20
3.989119104
 11
85.35190148
 21
3.644667339
  0
LINE
  8
Meterkurven
 10
85.35190148
 20
3.644667339
 11
85.69262021
 21
3.426799704
  0
LINE
  8
Meterkurven
 10
85.69262021
 20
3.426799704
 11
86.0702098
 21
3.254122643
  0
LINE
  8
Meterkurven
 10
86.0702098
 20
3.254122643
 11
86.47871281
 21
3.120781649
  0
LINE
  8
Meterkurven
 10
86.47871281
 20
3.120781649
 11
86.91217181
 21
3.020922213
  0
LINE
  8
Meterkurven
 10
86.91217181
 20
3.020922213
 11
87.36462936
 21
2.94868983
  0
LINE
  8
Meterkurven
 10
87.36462936
 20
2.94868983
 11
87.83012803
 21
2.898229993
  0
LINE
  8
Meterkurven
 10
87.83012803
 20
2.898229993
 11
88.30271038
 21
2.863688195
  0
LINE
  8
Meterkurven
 10
88.30271038
 20
2.863688195
 11
88.77641899
 21
2.839209929
  0
LINE
  8
Meterkurven
 10
88.77641899
 20
2.839209929
 11
89.24529641
 21
2.818940688
  0
LINE
  8
Meterkurven
 10
89.24529641
 20
2.818940688
 11
89.70338522
 21
2.797025966
  0
LINE
  8
Meterkurven
 10
89.70338522
 20
2.797025966
 11
90.35594636
 21
2.772036712
  0
LINE
  8
Meterkurven
 10
90.35594636
 20
2.772036712
 11
91.00516819
 21
2.765723275
  0
LINE
  8
Meterkurven
 10
91.00516819
 20
2.765723275
 11
91.65156196
 21
2.773526575
  0
LINE
  8
Meterkurven
 10
91.65156196
 20
2.773526575
 11
92.29563891
 21
2.790887532
  0
LINE
  8
Meterkurven
 10
92.29563891
 20
2.790887532
 11
92.93791029
 21
2.813247067
  0
LINE
  8
Meterkurven
 10
92.93791029
 20
2.813247067
 11
93.57888733
 21
2.836046102
  0
LINE
  8
Meterkurven
 10
93.57888733
 20
2.836046102
 11
94.21908129
 21
2.854725556
  0
LINE
  8
Meterkurven
 10
94.21908129
 20
2.854725556
 11
94.85900341
 21
2.86472635
  0
LINE
  8
Meterkurven
 10
94.85900341
 20
2.86472635
 11
95.49916493
 21
2.861489406
  0
LINE
  8
Meterkurven
 10
95.49916493
 20
2.861489406
 11
96.1400771
 21
2.840455644
  0
LINE
  8
Meterkurven
 10
96.1400771
 20
2.840455644
 11
96.99420636
 21
2.784718244
  0
LINE
  8
Meterkurven
 10
96.99420636
 20
2.784718244
 11
97.84645878
 21
2.703779544
  0
LINE
  8
Meterkurven
 10
97.84645878
 20
2.703779544
 11
98.69709973
 21
2.601260145
  0
LINE
  8
Meterkurven
 10
98.69709973
 20
2.601260145
 11
99.54639458
 21
2.480780648
  0
LINE
  8
Meterkurven
 10
99.54639458
 20
2.480780648
 11
100.3946087
 21
2.345961654
  0
LINE
  8
Meterkurven
 10
100.3946087
 20
2.345961654
 11
101.2420074
 21
2.200423762
  0
LINE
  8
Meterkurven
 10
101.2420074
 20
2.200423762
 11
102.0888561
 21
2.047787575
  0
LINE
  8
Meterkurven
 10
102.0888561
 20
2.047787575
 11
102.9354202
 21
1.891673694
  0
LINE
  8
Meterkurven
 10
102.9354202
 20
1.891673694
 11
103.7819649
 21
1.735702718
  0
LINE
  8
Meterkurven
 10
103.7819649
 20
1.735702718
 11
104.6287558
 21
1.58349525
  0
LINE
  8
Meterkurven
 10
104.6287558
 20
1.58349525
 11
105.2003834
 21
1.485425691
  0
LINE
  8
Meterkurven
 10
105.2003834
 20
1.485425691
 11
105.7829304
 21
1.389943457
  0
LINE
  8
Meterkurven
 10
105.7829304
 20
1.389943457
 11
106.3717699
 21
1.296923084
  0
LINE
  8
Meterkurven
 10
106.3717699
 20
1.296923084
 11
106.9622747
 21
1.206239105
  0
LINE
  8
Meterkurven
 10
106.9622747
 20
1.206239105
 11
107.5498177
 21
1.117766056
  0
LINE
  8
Meterkurven
 10
107.5498177
 20
1.117766056
 11
108.129772
 21
1.031378472
  0
LINE
  8
Meterkurven
 10
108.129772
 20
1.031378472
 11
108.6975104
 21
0.9469508879
  0
LINE
  8
Meterkurven
 10
108.6975104
 20
0.9469508879
 11
109.2484058
 21
0.864357838
  0
LINE
  8
Meterkurven
 10
109.2484058
 20
0.864357838
 11
109.7778313
 21
0.7834738574
  0
LINE
  8
Meterkurven
 10
109.7778313
 20
0.7834738574
 11
110.2811597
 21
0.7041734811
  0
LINE
  8
Meterkurven
 10
86.32109825
 20
46.03827796
 11
86.36472174
 21
45.29409523
  0
LINE
  8
Meterkurven
 10
86.36472174
 20
45.29409523
 11
86.42153013
 21
44.49391043
  0
LINE
  8
Meterkurven
 10
86.42153013
 20
44.49391043
 11
86.49138137
 21
43.64794558
  0
LINE
  8
Meterkurven
 10
86.49138137
 20
43.64794558
 11
86.57413343
 21
42.76642267
  0
LINE
  8
Meterkurven
 10
86.57413343
 20
42.76642267
 11
86.66964428
 21
41.85956373
  0
LINE
  8
Meterkurven
 10
86.66964428
 20
41.85956373
 11
86.77777188
 21
40.93759077
  0
LINE
  8
Meterkurven
 10
86.77777188
 20
40.93759077
 11
86.8983742
 21
40.01072578
  0
LINE
  8
Meterkurven
 10
86.8983742
 20
40.01072578
 11
87.03130921
 21
39.08919079
  0
LINE
  8
Meterkurven
 10
87.03130921
 20
39.08919079
 11
87.17643487
 21
38.18320781
  0
LINE
  8
Meterkurven
 10
87.17643487
 20
38.18320781
 11
87.33360914
 21
37.30299884
  0
LINE
  8
Meterkurven
 10
87.33360914
 20
37.30299884
 11
87.54560086
 21
36.25622688
  0
LINE
  8
Meterkurven
 10
87.54560086
 20
36.25622688
 11
87.78115145
 21
35.22148486
  0
LINE
  8
Meterkurven
 10
87.78115145
 20
35.22148486
 11
88.03677764
 21
34.19509993
  0
LINE
  8
Meterkurven
 10
88.03677764
 20
34.19509993
 11
88.30899614
 21
33.17339924
  0
LINE
  8
Meterkurven
 10
88.30899614
 20
33.17339924
 11
88.59432368
 21
32.15270992
  0
LINE
  8
Meterkurven
 10
88.59432368
 20
32.15270992
 11
88.88927699
 21
31.12935913
  0
LINE
  8
Meterkurven
 10
88.88927699
 20
31.12935913
 11
89.19037278
 21
30.09967401
  0
LINE
  8
Meterkurven
 10
89.19037278
 20
30.09967401
 11
89.49412778
 21
29.0599817
  0
LINE
  8
Meterkurven
 10
89.49412778
 20
29.0599817
 11
89.79705872
 21
28.00660935
  0
LINE
  8
Meterkurven
 10
89.79705872
 20
28.00660935
 11
90.0956823
 21
26.93588411
  0
LINE
  8
Meterkurven
 10
90.0956823
 20
26.93588411
 11
90.33137227
 21
26.02316396
  0
LINE
  8
Meterkurven
 10
90.33137227
 20
26.02316396
 11
90.5556772
 21
25.08968906
  0
LINE
  8
Meterkurven
 10
90.5556772
 20
25.08968906
 11
90.78020654
 21
24.15012659
  0
LINE
  8
Meterkurven
 10
90.78020654
 20
24.15012659
 11
91.0165697
 21
23.2191437
  0
LINE
  8
Meterkurven
 10
91.0165697
 20
23.2191437
 11
91.27637611
 21
22.31140755
  0
LINE
  8
Meterkurven
 10
91.27637611
 20
22.31140755
 11
91.57123522
 21
21.44158532
  0
LINE
  8
Meterkurven
 10
91.57123522
 20
21.44158532
 11
91.91275644
 21
20.62434417
  0
LINE
  8
Meterkurven
 10
91.91275644
 20
20.62434417
 11
92.3125492
 21
19.87435126
  0
LINE
  8
Meterkurven
 10
92.3125492
 20
19.87435126
 11
92.78222294
 21
19.20627375
  0
LINE
  8
Meterkurven
 10
92.78222294
 20
19.20627375
 11
93.33338708
 21
18.63477882
  0
LINE
  8
Meterkurven
 10
93.33338708
 20
18.63477882
 11
93.82902219
 21
18.27622766
  0
LINE
  8
Meterkurven
 10
93.82902219
 20
18.27622766
 11
94.39175828
 21
17.9925331
  0
LINE
  8
Meterkurven
 10
94.39175828
 20
17.9925331
 11
95.01124472
 21
17.77462839
  0
LINE
  8
Meterkurven
 10
95.01124472
 20
17.77462839
 11
95.67713085
 21
17.61344679
  0
LINE
  8
Meterkurven
 10
95.67713085
 20
17.61344679
 11
96.37906604
 21
17.49992156
  0
LINE
  8
Meterkurven
 10
96.37906604
 20
17.49992156
 11
97.10669962
 21
17.42498596
  0
LINE
  8
Meterkurven
 10
97.10669962
 20
17.42498596
 11
97.84968097
 21
17.37957325
  0
LINE
  8
Meterkurven
 10
97.84968097
 20
17.37957325
 11
98.59765941
 21
17.35461668
  0
LINE
  8
Meterkurven
 10
98.59765941
 20
17.35461668
 11
99.34028432
 21
17.34104952
  0
LINE
  8
Meterkurven
 10
99.34028432
 20
17.34104952
 11
100.067205
 21
17.32980503
  0
LINE
  8
Meterkurven
 10
100.067205
 20
17.32980503
 11
100.5752584
 21
17.3260588
  0
LINE
  8
Meterkurven
 10
100.5752584
 20
17.3260588
 11
101.0780797
 21
17.33125794
  0
LINE
  8
Meterkurven
 10
101.0780797
 20
17.33125794
 11
101.576092
 21
17.34199521
  0
LINE
  8
Meterkurven
 10
101.576092
 20
17.34199521
 11
102.0697183
 21
17.35486336
  0
LINE
  8
Meterkurven
 10
102.0697183
 20
17.35486336
 11
102.5593814
 21
17.36645512
  0
LINE
  8
Meterkurven
 10
102.5593814
 20
17.36645512
 11
103.0455043
 21
17.37336324
  0
LINE
  8
Meterkurven
 10
103.0455043
 20
17.37336324
 11
 103.52851
 21
17.37218048
  0
LINE
  8
Meterkurven
 10
 103.52851
 20
17.37218048
 11
104.0088215
 21
17.35949957
  0
LINE
  8
Meterkurven
 10
104.0088215
 20
17.35949957
 11
104.4868616
 21
17.33191326
  0
LINE
  8
Meterkurven
 10
104.4868616
 20
17.33191326
 11
104.9630535
 21
17.2860143
  0
LINE
  8
Meterkurven
 10
104.9630535
 20
17.2860143
 11
105.5394789
 21
17.18593013
  0
LINE
  8
Meterkurven
 10
105.5394789
 20
17.18593013
 11
106.1130137
 21
17.0274938
  0
LINE
  8
Meterkurven
 10
106.1130137
 20
17.0274938
 11
106.681024
 21
16.8188362
  0
LINE
  8
Meterkurven
 10
106.681024
 20
16.8188362
 11
107.2408759
 21
16.56808822
  0
LINE
  8
Meterkurven
 10
107.2408759
 20
16.56808822
 11
107.7899354
 21
16.28338076
  0
LINE
  8
Meterkurven
 10
107.7899354
 20
16.28338076
 11
108.3255686
 21
15.97284471
  0
LINE
  8
Meterkurven
 10
108.3255686
 20
15.97284471
 11
108.8451415
 21
15.64461097
  0
LINE
  8
Meterkurven
 10
108.8451415
 20
15.64461097
 11
109.3460203
 21
15.30681042
  0
LINE
  8
Meterkurven
 10
109.3460203
 20
15.30681042
 11
109.825571
 21
14.96757395
  0
LINE
  8
Meterkurven
 10
109.825571
 20
14.96757395
 11
110.2811597
 21
14.63503247
  0
LINE
  8
Meterkurven
 10
94.07648668
 20
56.39573473
 11
94.51115668
 21
55.9473276
  0
LINE
  8
Meterkurven
 10
94.51115668
 20
55.9473276
 11
95.00932531
 21
55.45108462
  0
LINE
  8
Meterkurven
 10
95.00932531
 20
55.45108462
 11
95.56193674
 21
54.91835905
  0
LINE
  8
Meterkurven
 10
95.56193674
 20
54.91835905
 11
96.15993515
 21
54.36050418
  0
LINE
  8
Meterkurven
 10
96.15993515
 20
54.36050418
 11
96.79426473
 21
53.7888733
  0
LINE
  8
Meterkurven
 10
96.79426473
 20
53.7888733
 11
97.45586965
 21
53.2148197
  0
LINE
  8
Meterkurven
 10
97.45586965
 20
53.2148197
 11
98.13569409
 21
52.64969665
  0
LINE
  8
Meterkurven
 10
98.13569409
 20
52.64969665
 11
98.82468224
 21
52.10485744
  0
LINE
  8
Meterkurven
 10
98.82468224
 20
52.10485744
 11
99.51377827
 21
51.59165536
  0
LINE
  8
Meterkurven
 10
99.51377827
 20
51.59165536
 11
100.1939264
 21
51.12144368
  0
LINE
  8
Meterkurven
 10
100.1939264
 20
51.12144368
 11
100.5225675
 21
50.9059355
  0
LINE
  8
Meterkurven
 10
100.5225675
 20
50.9059355
 11
100.8529395
 21
50.69280233
  0
LINE
  8
Meterkurven
 10
100.8529395
 20
50.69280233
 11
101.1848689
 21
50.48181817
  0
LINE
  8
Meterkurven
 10
101.1848689
 20
50.48181817
 11
101.5181823
 21
50.27275702
  0
LINE
  8
Meterkurven
 10
101.5181823
 20
50.27275702
 11
101.8527065
 21
50.06539289
  0
LINE
  8
Meterkurven
 10
101.8527065
 20
50.06539289
 11
102.1882679
 21
49.85949978
  0
LINE
  8
Meterkurven
 10
102.1882679
 20
49.85949978
 11
102.5246933
 21
49.6548517
  0
LINE
  8
Meterkurven
 10
102.5246933
 20
49.6548517
 11
102.8618092
 21
49.45122265
  0
LINE
  8
Meterkurven
 10
102.8618092
 20
49.45122265
 11
103.1994423
 21
49.24838663
  0
LINE
  8
Meterkurven
 10
103.1994423
 20
49.24838663
 11
103.5374191
 21
49.04611765
  0
LINE
  8
Meterkurven
 10
103.5374191
 20
49.04611765
 11
103.8755498
 21
48.84388763
  0
LINE
  8
Meterkurven
 10
103.8755498
 20
48.84388763
 11
104.2134594
 21
48.64151939
  0
LINE
  8
Meterkurven
 10
104.2134594
 20
48.64151939
 11
104.5511794
 21
48.43902493
  0
LINE
  8
Meterkurven
 10
104.5511794
 20
48.43902493
 11
104.8887415
 21
48.23641624
  0
LINE
  8
Meterkurven
 10
104.8887415
 20
48.23641624
 11
105.2261771
 21
48.03370531
  0
LINE
  8
Meterkurven
 10
105.2261771
 20
48.03370531
 11
105.5635179
 21
47.83090414
  0
LINE
  8
Meterkurven
 10
105.5635179
 20
47.83090414
 11
105.9007954
 21
47.62802471
  0
LINE
  8
Meterkurven
 10
105.9007954
 20
47.62802471
 11
106.2380412
 21
47.42507903
  0
LINE
  8
Meterkurven
 10
106.2380412
 20
47.42507903
 11
106.5752868
 21
47.22207909
  0
LINE
  8
Meterkurven
 10
106.5752868
 20
47.22207909
 11
106.912564
 21
47.01903687
  0
LINE
  8
Meterkurven
 10
106.912564
 20
47.01903687
 11
107.2522319
 21
46.81372681
  0
LINE
  8
Meterkurven
 10
107.2522319
 20
46.81372681
 11
107.5956821
 21
46.60466103
  0
LINE
  8
Meterkurven
 10
107.5956821
 20
46.60466103
 11
107.9411285
 21
46.39317805
  0
LINE
  8
Meterkurven
 10
107.9411285
 20
46.39317805
 11
108.2867853
 21
46.18061638
  0
LINE
  8
Meterkurven
 10
108.2867853
 20
46.18061638
 11
108.6308667
 21
45.96831451
  0
LINE
  8
Meterkurven
 10
108.6308667
 20
45.96831451
 11
108.9715867
 21
45.75761096
  0
LINE
  8
Meterkurven
 10
108.9715867
 20
45.75761096
 11
109.3071596
 21
45.54984423
  0
LINE
  8
Meterkurven
 10
109.3071596
 20
45.54984423
 11
109.6357993
 21
45.34635284
  0
LINE
  8
Meterkurven
 10
109.6357993
 20
45.34635284
 11
109.9557202
 21
45.14847527
  0
LINE
  8
Meterkurven
 10
109.9557202
 20
45.14847527
 11
110.2651362
 21
44.95755005
  0
LINE
  8
Meterkurven
 10
-71.48640779
 20
-43.56179337
 11
-71.81107231
 21
-43.63073483
  0
LINE
  8
Meterkurven
 10
-71.81107231
 20
-43.63073483
 11
-72.15759846
 21
-43.68615323
  0
LINE
  8
Meterkurven
 10
-72.15759846
 20
-43.68615323
 11
-72.52171052
 21
-43.72652164
  0
LINE
  8
Meterkurven
 10
-72.52171052
 20
-43.72652164
 11
-72.89913278
 21
-43.75031314
  0
LINE
  8
Meterkurven
 10
-72.89913278
 20
-43.75031314
 11
-73.28558956
 21
-43.7560008
  0
LINE
  8
Meterkurven
 10
-73.28558956
 20
-43.7560008
 11
-73.67680513
 21
-43.74205772
  0
LINE
  8
Meterkurven
 10
-73.67680513
 20
-43.74205772
 11
-74.06850381
 21
-43.70695697
  0
LINE
  8
Meterkurven
 10
-74.06850381
 20
-43.70695697
 11
-74.45640987
 21
-43.64917163
  0
LINE
  8
Meterkurven
 10
-74.45640987
 20
-43.64917163
 11
-74.83624762
 21
-43.56717477
  0
LINE
  8
Meterkurven
 10
-74.83624762
 20
-43.56717477
 11
-75.20374136
 21
-43.45943949
  0
LINE
  8
Meterkurven
 10
-75.20374136
 20
-43.45943949
 11
-75.56059236
 21
-43.33143263
  0
LINE
  8
Meterkurven
 10
-75.56059236
 20
-43.33143263
 11
-75.91635351
 21
-43.18670734
  0
LINE
  8
Meterkurven
 10
-75.91635351
 20
-43.18670734
 11
-76.26691698
 21
-43.02477308
  0
LINE
  8
Meterkurven
 10
-76.26691698
 20
-43.02477308
 11
-76.60817492
 21
-42.84513928
  0
LINE
  8
Meterkurven
 10
-76.60817492
 20
-42.84513928
 11
-76.93601948
 21
-42.64731539
  0
LINE
  8
Meterkurven
 10
-76.93601948
 20
-42.64731539
 11
-77.24634283
 21
-42.43081086
  0
LINE
  8
Meterkurven
 10
-77.24634283
 20
-42.43081086
 11
-77.53503711
 21
-42.19513511
  0
LINE
  8
Meterkurven
 10
-77.53503711
 20
-42.19513511
 11
-77.7979945
 21
-41.9397976
  0
LINE
  8
Meterkurven
 10
-77.7979945
 20
-41.9397976
 11
-78.03110714
 21
-41.66430777
  0
LINE
  8
Meterkurven
 10
-78.03110714
 20
-41.66430777
 11
-78.2302672
 21
-41.36817506
  0
LINE
  8
Meterkurven
 10
-78.2302672
 20
-41.36817506
 11
-78.40194318
 21
-41.02665169
  0
LINE
  8
Meterkurven
 10
-78.40194318
 20
-41.02665169
 11
-78.53562618
 21
-40.66264556
  0
LINE
  8
Meterkurven
 10
-78.53562618
 20
-40.66264556
 11
-78.64044674
 21
-40.28151609
  0
LINE
  8
Meterkurven
 10
-78.64044674
 20
-40.28151609
 11
-78.72553542
 21
-39.88862268
  0
LINE
  8
Meterkurven
 10
-78.72553542
 20
-39.88862268
 11
-78.80002277
 21
-39.48932474
  0
LINE
  8
Meterkurven
 10
-78.80002277
 20
-39.48932474
 11
-78.87303934
 21
-39.08898167
  0
LINE
  8
Meterkurven
 10
-78.87303934
 20
-39.08898167
 11
-78.95371569
 21
-38.69295287
  0
LINE
  8
Meterkurven
 10
-78.95371569
 20
-38.69295287
 11
-79.05118237
 21
-38.30659776
  0
LINE
  8
Meterkurven
 10
-79.05118237
 20
-38.30659776
 11
-79.17456993
 21
-37.93527574
  0
LINE
  8
Meterkurven
 10
-79.17456993
 20
-37.93527574
 11
-79.33300893
 21
-37.58434622
  0
LINE
  8
Meterkurven
 10
-79.33300893
 20
-37.58434622
 11
-79.56196672
 21
-37.20932766
  0
LINE
  8
Meterkurven
 10
-79.56196672
 20
-37.20932766
 11
-79.83325368
 21
-36.86215626
  0
LINE
  8
Meterkurven
 10
-79.83325368
 20
-36.86215626
 11
-80.14128926
 21
-36.53987417
  0
LINE
  8
Meterkurven
 10
-80.14128926
 20
-36.53987417
 11
-80.4804929
 21
-36.23952357
  0
LINE
  8
Meterkurven
 10
-80.4804929
 20
-36.23952357
 11
-80.84528403
 21
-35.95814662
  0
LINE
  8
Meterkurven
 10
-80.84528403
 20
-35.95814662
 11
-81.2300821
 21
-35.69278549
  0
LINE
  8
Meterkurven
 10
-81.2300821
 20
-35.69278549
 11
-81.62930654
 21
-35.44048234
  0
LINE
  8
Meterkurven
 10
-81.62930654
 20
-35.44048234
 11
-82.0373768
 21
-35.19827934
  0
LINE
  8
Meterkurven
 10
-82.0373768
 20
-35.19827934
 11
-82.44871232
 21
-34.96321865
  0
LINE
  8
Meterkurven
 10
-82.44871232
 20
-34.96321865
 11
-82.85773253
 21
-34.73234244
  0
LINE
  8
Meterkurven
 10
-82.85773253
 20
-34.73234244
 11
-83.18094345
 21
-34.55063462
  0
LINE
  8
Meterkurven
 10
-83.18094345
 20
-34.55063462
 11
-83.50368662
 21
-34.37299818
  0
LINE
  8
Meterkurven
 10
-83.50368662
 20
-34.37299818
 11
-83.82682936
 21
-34.20102918
  0
LINE
  8
Meterkurven
 10
-83.82682936
 20
-34.20102918
 11
-84.15123897
 21
-34.03632366
  0
LINE
  8
Meterkurven
 10
-84.15123897
 20
-34.03632366
 11
-84.47778276
 21
-33.88047765
  0
LINE
  8
Meterkurven
 10
-84.47778276
 20
-33.88047765
 11
-84.80732802
 21
-33.7350872
  0
LINE
  8
Meterkurven
 10
-84.80732802
 20
-33.7350872
 11
-85.14074207
 21
-33.60174835
  0
LINE
  8
Meterkurven
 10
-85.14074207
 20
-33.60174835
 11
-85.47889221
 21
-33.48205715
  0
LINE
  8
Meterkurven
 10
-85.47889221
 20
-33.48205715
 11
-85.82264575
 21
-33.37760962
  0
LINE
  8
Meterkurven
 10
-85.82264575
 20
-33.37760962
 11
-86.17286999
 21
-33.29000183
  0
LINE
  8
Meterkurven
 10
-86.17286999
 20
-33.29000183
 11
-86.44941068
 21
-33.23208919
  0
LINE
  8
Meterkurven
 10
-86.44941068
 20
-33.23208919
 11
-86.73167707
 21
-33.18113934
  0
LINE
  8
Meterkurven
 10
-86.73167707
 20
-33.18113934
 11
-87.01772959
 21
-33.13920909
  0
LINE
  8
Meterkurven
 10
-87.01772959
 20
-33.13920909
 11
-87.30562868
 21
-33.10835524
  0
LINE
  8
Meterkurven
 10
-87.30562868
 20
-33.10835524
 11
-87.59343479
 21
-33.09063459
  0
LINE
  8
Meterkurven
 10
-87.59343479
 20
-33.09063459
 11
-87.87920836
 21
-33.08810394
  0
LINE
  8
Meterkurven
 10
-87.87920836
 20
-33.08810394
 11
-88.16100984
 21
-33.10282009
  0
LINE
  8
Meterkurven
 10
-88.16100984
 20
-33.10282009
 11
-88.43689966
 21
-33.13683985
  0
LINE
  8
Meterkurven
 10
-88.43689966
 20
-33.13683985
 11
-88.70493826
 21
-33.19222002
  0
LINE
  8
Meterkurven
 10
-88.70493826
 20
-33.19222002
 11
-88.9631861
 21
-33.27101739
  0
LINE
  8
Meterkurven
 10
-88.9631861
 20
-33.27101739
 11
-89.12749787
 21
-33.33875222
  0
LINE
  8
Meterkurven
 10
-89.12749787
 20
-33.33875222
 11
-89.28740673
 21
-33.42082442
  0
LINE
  8
Meterkurven
 10
-89.28740673
 20
-33.42082442
 11
-89.44284124
 21
-33.51577395
  0
LINE
  8
Meterkurven
 10
-89.44284124
 20
-33.51577395
 11
-89.59372992
 21
-33.62214074
  0
LINE
  8
Meterkurven
 10
-89.59372992
 20
-33.62214074
 11
-89.74000132
 21
-33.73846475
  0
LINE
  8
Meterkurven
 10
-89.74000132
 20
-33.73846475
 11
-89.88158397
 21
-33.86328592
  0
LINE
  8
Meterkurven
 10
-89.88158397
 20
-33.86328592
 11
-90.01840642
 21
-33.99514419
  0
LINE
  8
Meterkurven
 10
-90.01840642
 20
-33.99514419
 11
-90.15039721
 21
-34.1325795
  0
LINE
  8
Meterkurven
 10
-90.15039721
 20
-34.1325795
 11
-90.27748486
 21
-34.2741318
  0
LINE
  8
Meterkurven
 10
-90.27748486
 20
-34.2741318
 11
-90.39959794
 21
-34.41834103
  0
LINE
  8
Meterkurven
 10
-84.39616629
 20
-24.77651537
 11
-84.50988654
 21
-24.83568952
  0
LINE
  8
Meterkurven
 10
-84.50988654
 20
-24.83568952
 11
-84.62966881
 21
-24.89762265
  0
LINE
  8
Meterkurven
 10
-84.62966881
 20
-24.89762265
 11
-84.7546468
 21
-24.96117995
  0
LINE
  8
Meterkurven
 10
-84.7546468
 20
-24.96117995
 11
-84.88395423
 21
-25.02522661
  0
LINE
  8
Meterkurven
 10
-84.88395423
 20
-25.02522661
 11
-85.01672482
 21
-25.08862779
  0
LINE
  8
Meterkurven
 10
-85.01672482
 20
-25.08862779
 11
-85.1520923
 21
-25.15024869
  0
LINE
  8
Meterkurven
 10
-85.1520923
 20
-25.15024869
 11
-85.28919037
 21
-25.20895449
  0
LINE
  8
Meterkurven
 10
-85.28919037
 20
-25.20895449
 11
-85.42715275
 21
-25.26361037
  0
LINE
  8
Meterkurven
 10
-85.42715275
 20
-25.26361037
 11
-85.56511317
 21
-25.31308151
  0
LINE
  8
Meterkurven
 10
-85.56511317
 20
-25.31308151
 11
-85.70220534
 21
-25.3562331
  0
LINE
  8
Meterkurven
 10
-85.70220534
 20
-25.3562331
 11
-85.96490028
 21
-25.42498167
  0
LINE
  8
Meterkurven
 10
-85.96490028
 20
-25.42498167
 11
-86.23112387
 21
-25.48183551
  0
LINE
  8
Meterkurven
 10
-86.23112387
 20
-25.48183551
 11
-86.50000697
 21
-25.52984536
  0
LINE
  8
Meterkurven
 10
-86.50000697
 20
-25.52984536
 11
-86.77068042
 21
-25.57206198
  0
LINE
  8
Meterkurven
 10
-86.77068042
 20
-25.57206198
 11
-87.04227508
 21
-25.61153612
  0
LINE
  8
Meterkurven
 10
-87.04227508
 20
-25.61153612
 11
-87.3139218
 21
-25.65131853
  0
LINE
  8
Meterkurven
 10
-87.3139218
 20
-25.65131853
 11
-87.58475143
 21
-25.69445997
  0
LINE
  8
Meterkurven
 10
-87.58475143
 20
-25.69445997
 11
-87.85389482
 21
-25.74401117
  0
LINE
  8
Meterkurven
 10
-87.85389482
 20
-25.74401117
 11
-88.12048281
 21
-25.8030229
  0
LINE
  8
Meterkurven
 10
-88.12048281
 20
-25.8030229
 11
-88.38364627
 21
-25.87454591
  0
LINE
  8
Meterkurven
 10
-88.38364627
 20
-25.87454591
 11
-88.6233995
 21
-25.95075529
  0
LINE
  8
Meterkurven
 10
-88.6233995
 20
-25.95075529
 11
-88.86100484
 21
-26.03378945
  0
LINE
  8
Meterkurven
 10
-88.86100484
 20
-26.03378945
 11
-89.09647535
 21
-26.1232427
  0
LINE
  8
Meterkurven
 10
-89.09647535
 20
-26.1232427
 11
-89.32982408
 21
-26.21870939
  0
LINE
  8
Meterkurven
 10
-89.32982408
 20
-26.21870939
 11
-89.56106408
 21
-26.31978385
  0
LINE
  8
Meterkurven
 10
-89.56106408
 20
-26.31978385
 11
-89.7902084
 21
-26.42606042
  0
LINE
  8
Meterkurven
 10
-89.7902084
 20
-26.42606042
 11
-90.01727009
 21
-26.53713341
  0
LINE
  8
Meterkurven
 10
-90.01727009
 20
-26.53713341
 11
-90.2422622
 21
-26.65259718
  0
LINE
  8
Meterkurven
 10
-90.2422622
 20
-26.65259718
 11
-90.4651978
 21
-26.77204605
  0
LINE
  8
Meterkurven
 10
-90.4651978
 20
-26.77204605
 11
-90.68608992
 21
-26.89507435
  0
LINE
  8
Meterkurven
 10
-90.68608992
 20
-26.89507435
 11
-91.01218217
 21
-27.0876542
  0
LINE
  8
Meterkurven
 10
-91.01218217
 20
-27.0876542
 11
-91.33985578
 21
-27.29556326
  0
LINE
  8
Meterkurven
 10
-91.33985578
 20
-27.29556326
 11
-91.66601259
 21
-27.51569828
  0
LINE
  8
Meterkurven
 10
-91.66601259
 20
-27.51569828
 11
-91.98755444
 21
-27.74495599
  0
LINE
  8
Meterkurven
 10
-91.98755444
 20
-27.74495599
 11
-92.30138315
 21
-27.98023314
  0
LINE
  8
Meterkurven
 10
-92.30138315
 20
-27.98023314
 11
-92.60440056
 21
-28.21842646
  0
LINE
  8
Meterkurven
 10
-92.60440056
 20
-28.21842646
 11
-92.8935085
 21
-28.45643269
  0
LINE
  8
Meterkurven
 10
-92.8935085
 20
-28.45643269
 11
-93.1656088
 21
-28.69114858
  0
LINE
  8
Meterkurven
 10
-93.1656088
 20
-28.69114858
 11
-93.41760331
 21
-28.91947086
  0
LINE
  8
Meterkurven
 10
-93.41760331
 20
-28.91947086
 11
-93.64639385
 21
-29.13829627
  0
LINE
  8
Meterkurven
 10
-85.03871025
 20
-79.77261532
 11
-85.57127103
 21
-79.89603609
  0
LINE
  8
Meterkurven
 10
-85.57127103
 20
-79.89603609
 11
-86.14483792
 21
-79.99982341
  0
LINE
  8
Meterkurven
 10
-86.14483792
 20
-79.99982341
 11
-86.74944276
 21
-80.07895014
  0
LINE
  8
Meterkurven
 10
-86.74944276
 20
-80.07895014
 11
-87.37511738
 21
-80.12838912
  0
LINE
  8
Meterkurven
 10
-87.37511738
 20
-80.12838912
 11
-88.01189365
 21
-80.14311317
  0
LINE
  8
Meterkurven
 10
-88.01189365
 20
-80.14311317
 11
-88.64980339
 21
-80.11809516
  0
LINE
  8
Meterkurven
 10
-88.64980339
 20
-80.11809516
 11
-89.27887846
 21
-80.04830791
  0
LINE
  8
Meterkurven
 10
-89.27887846
 20
-80.04830791
 11
-89.88915069
 21
-79.92872427
  0
LINE
  8
Meterkurven
 10
-89.88915069
 20
-79.92872427
 11
-90.47065195
 21
-79.75431708
  0
LINE
  8
Meterkurven
 10
-90.47065195
 20
-79.75431708
 11
-91.01341406
 21
-79.52005918
  0
LINE
  8
Meterkurven
 10
-91.01341406
 20
-79.52005918
 11
-91.53714568
 21
-79.22837858
  0
LINE
  8
Meterkurven
 10
-91.53714568
 20
-79.22837858
 11
-92.04522477
 21
-78.89818294
  0
LINE
  8
Meterkurven
 10
-92.04522477
 20
-78.89818294
 11
-92.53600157
 21
-78.53238986
  0
LINE
  8
Meterkurven
 10
-92.53600157
 20
-78.53238986
 11
-93.0078263
 21
-78.13391694
  0
LINE
  8
Meterkurven
 10
-93.0078263
 20
-78.13391694
 11
-93.4590492
 21
-77.70568179
  0
LINE
  8
Meterkurven
 10
-93.4590492
 20
-77.70568179
 11
-93.88802051
 21
-77.25060202
  0
LINE
  8
Meterkurven
 10
-93.88802051
 20
-77.25060202
 11
-94.29309045
 21
-76.77159523
  0
LINE
  8
Meterkurven
 10
-94.29309045
 20
-76.77159523
 11
-94.67260926
 21
-76.27157904
  0
LINE
  8
Meterkurven
 10
-94.67260926
 20
-76.27157904
 11
-95.02492718
 21
-75.75347104
  0
LINE
  8
Meterkurven
 10
-95.02492718
 20
-75.75347104
 11
-95.34839443
 21
-75.22018884
  0
LINE
  8
Meterkurven
 10
-95.34839443
 20
-75.22018884
 11
-95.57729693
 21
-74.79474882
  0
LINE
  8
Meterkurven
 10
-95.57729693
 20
-74.79474882
 11
-95.78474012
 21
-74.3627854
  0
LINE
  8
Meterkurven
 10
-95.78474012
 20
-74.3627854
 11
-95.97485542
 21
-73.92545088
  0
LINE
  8
Meterkurven
 10
-95.97485542
 20
-73.92545088
 11
-96.15177423
 21
-73.48389757
  0
LINE
  8
Meterkurven
 10
-96.15177423
 20
-73.48389757
 11
-96.31962798
 21
-73.03927779
  0
LINE
  8
Meterkurven
 10
-96.31962798
 20
-73.03927779
 11
-96.48254808
 21
-72.59274382
  0
LINE
  8
Meterkurven
 10
-96.48254808
 20
-72.59274382
 11
-96.64466595
 21
-72.145448
  0
LINE
  8
Meterkurven
 10
-96.64466595
 20
-72.145448
 11
-96.81011301
 21
-71.69854261
  0
LINE
  8
Meterkurven
 10
-96.81011301
 20
-71.69854261
 11
-96.98302066
 21
-71.25317997
  0
LINE
  8
Meterkurven
 10
-96.98302066
 20
-71.25317997
 11
-97.16752033
 21
-70.81051239
  0
LINE
  8
Meterkurven
 10
-97.16752033
 20
-70.81051239
 11
-97.35856972
 21
-70.38453146
  0
LINE
  8
Meterkurven
 10
-97.35856972
 20
-70.38453146
 11
-97.55931625
 21
-69.96328358
  0
LINE
  8
Meterkurven
 10
-97.55931625
 20
-69.96328358
 11
-97.76960783
 21
-69.54711764
  0
LINE
  8
Meterkurven
 10
-97.76960783
 20
-69.54711764
 11
-97.98929232
 21
-69.13638253
  0
LINE
  8
Meterkurven
 10
-97.98929232
 20
-69.13638253
 11
-98.21821762
 21
-68.73142715
  0
LINE
  8
Meterkurven
 10
-98.21821762
 20
-68.73142715
 11
-98.45623161
 21
-68.3326004
  0
LINE
  8
Meterkurven
 10
-98.45623161
 20
-68.3326004
 11
-98.70318216
 21
-67.94025116
  0
LINE
  8
Meterkurven
 10
-98.70318216
 20
-67.94025116
 11
-98.95891717
 21
-67.55472832
  0
LINE
  8
Meterkurven
 10
-98.95891717
 20
-67.55472832
 11
-99.22328452
 21
-67.17638079
  0
LINE
  8
Meterkurven
 10
-99.22328452
 20
-67.17638079
 11
-99.49613208
 21
-66.80555745
  0
LINE
  8
Meterkurven
 10
-99.49613208
 20
-66.80555745
 11
-99.86186959
 21
-66.35280819
  0
LINE
  8
Meterkurven
 10
-99.86186959
 20
-66.35280819
 11
-100.2611048
 21
-65.91462151
  0
LINE
  8
Meterkurven
 10
-100.2611048
 20
-65.91462151
 11
-100.6878835
 21
-65.4922336
  0
LINE
  8
Meterkurven
 10
-100.6878835
 20
-65.4922336
 11
-101.1362512
 21
-65.0868806
  0
LINE
  8
Meterkurven
 10
-101.1362512
 20
-65.0868806
 11
-101.6002537
 21
-64.6997987
  0
LINE
  8
Meterkurven
 10
-101.6002537
 20
-64.6997987
 11
-102.0739367
 21
-64.33222405
  0
LINE
  8
Meterkurven
 10
-102.0739367
 20
-64.33222405
 11
-102.5513458
 21
-63.98539282
  0
LINE
  8
Meterkurven
 10
-102.5513458
 20
-63.98539282
 11
-103.0265268
 21
-63.66054118
  0
LINE
  8
Meterkurven
 10
-103.0265268
 20
-63.66054118
 11
-103.4935252
 21
-63.3589053
  0
LINE
  8
Meterkurven
 10
-103.4935252
 20
-63.3589053
 11
-103.9463869
 21
-63.08172134
  0
LINE
  8
Meterkurven
 10
90.86919769
 20
-20.61132027
 11
82.41217662
 21
-14.64110224
  0
LINE
  8
Meterkurven
 10
82.41217662
 20
-14.64110224
 11
74.93478149
 21
-8.813218072
  0
LINE
  8
Meterkurven
 10
74.93478149
 20
-8.813218072
 11
64.48714495
 21
-0.936379509
  0
LINE
  8
Meterkurven
 10
64.48714495
 20
-0.936379509
 11
56.42957514
 21
5.393259767
  0
LINE
  8
Meterkurven
 10
90.86919769
 20
-20.61132027
 11
110.2811597
 21
-15.92636221
  0
LINE
  8
Meterkurven
 10
62.95546823
 20
-32.96017558
 11
65.17787401
 21
-33.55367111
  0
LINE
  8
Meterkurven
 10
-67.63600329
 20
-69.37540572
 11
-65.7079208
 21
-67.86367283
  0
LINE
  8
Meterkurven
 10
-65.7079208
 20
-67.86367283
 11
-65.7079208
 21
-67.86367283
  0
LINE
  8
Meterkurven
 10
-41.71476355
 20
-55.7237615
 11
-46.0560722
 21
-56.90273148
  0
LINE
  8
Meterkurven
 10
-59.60747764
 20
-63.36529762
 11
-46.0560722
 21
-56.90273148
  0
LINE
  8
Meterkurven
 10
-59.60747764
 20
-63.36529762
 11
-65.7079208
 21
-67.86367283
  0
TEXT
  8
Meterkurven
 10
-54.78452581
 20
-59.29497275
 40
         1
  1
1.074
 41
0.8863666667
  0
LINE
  8
Meterkurven
 10
-19.9751478
 20
-47.29837956
 11
-19.34107211
 21
-49.67616342
  0
LINE
  8
Meterkurven
 10
54.69261486
 20
7.602465412
 11
25.36541486
 21
-34.89155065
  0
LINE
  8
Meterkurven
 10
-22.80758081
 20
36.00474379
 11
-22.67007032
 21
35.99154949
  0
LINE
  8
Meterkurven
 10
10.91200556
 20
-38.84652972
 11
11.64591355
 21
-41.36956293
  0
LINE
  8
Meterkurven
 10
33.14839059
 20
-33.50034561
 11
28.18602945
 21
-30.80458559
  0
LINE
  8
Meterkurven
 10
46.83965157
 20
-3.776184715
 11
51.27327843
 21
-6.760554744
  0
POINT
  8
Meterkurven
 10
         0
 20
         0
  0
LINE
  8
Perimeter
 10
19.44592484
 20
41.18751408
 11
-2.458430698
 21
25.01757649
  0
LINE
  8
Perimeter
 10
-2.458430698
 20
25.01757649
 11
-23.4153311
 21
32.18811437
  0
LINE
  8
Meterkurven
 10
2.117244786
 20
51.77241752
 11
3.482890808
 21
50.93398789
  0
LINE
  8
Meterkurven
 10
-46.11044961
 20
23.66118463
 11
-45.26582821
 21
23.08151154
  0
LINE
  8
Meterkurven
 10
-59.32939883
 20
15.31126082
 11
-59.14465872
 21
15.15187142
  0
LINE
  8
Meterkurven
 10
-71.99204582
 20
8.569649284
 11
-71.47766284
 21
8.105435889
  0
LINE
  8
Meterkurven
 10
-82.35620757
 20
2.076001154
 11
-82.18481018
 21
1.987930154
  0
LINE
  8
Meterkurven
 10
36.8186008
 20
-17.45181368
 11
36.8186008
 21
-17.45181368
  0
LINE
  8
Meterkurven
 10
36.8186008
 20
-17.45181368
 11
36.8186008
 21
-17.45181368
  0
LINE
  8
Meterkurven
 10
36.8186008
 20
-17.45181368
 11
36.8186008
 21
-17.45181368
  0
LINE
  8
Meterkurven
 10
36.8186008
 20
-17.45181368
 11
36.8186008
 21
-17.45181368
  0
LINE
  8
Meterkurven
 10
-61.841615
 20
-11.51274632
 11
-61.841615
 21
-11.51274632
  0
LINE
  8
Meterkurven
 10
-31.49324824
 20
-21.31391551
 11
-31.49324824
 21
-21.31391551
  0
LINE
  8
Meterkurven
 10
-73.95050014
 20
-16.14209128
 11
-73.95050014
 21
-16.14209128
  0
LINE
  8
Meterkurven
 10
-31.70449926
 20
-45.07495495
 11
-31.70449926
 21
-45.07495495
  0
LINE
  8
Meterkurven
 10
-31.70449926
 20
-45.07495495
 11
-31.70449926
 21
-45.07495495
  0
LINE
  8
Meterkurven
 10
-24.74884013
 20
-45.86798369
 11
-24.74884013
 21
-45.86798369
  0
LINE
  8
Meterkurven
 10
-45.82936421
 20
-38.37168929
 11
-37.30237462
 21
-51.37055782
  0
LINE
  8
Meterkurven
 10
-73.11883211
 20
-17.07799216
 11
-65.6318074
 21
-20.98762133
  0
LINE
  8
Meterkurven
 10
-65.6318074
 20
-20.98762133
 11
-59.81246549
 21
-16.97175711
  0
LINE
  8
Meterkurven
 10
-59.81246549
 20
-16.97175711
 11
-45.82936421
 21
-38.37168929
  0
LINE
  8
Meterkurven
 10
-45.82936421
 20
-38.37168929
 11
-59.25530514
 21
-36.86075973
  0
LINE
  8
Meterkurven
 10
-20.72457762
 20
35.80487701
 11
-18.64202345
 21
35.60369495
  0
LINE
  8
Meterkurven
 10
-18.64202345
 20
35.60369495
 11
-16.56777131
 21
35.37374675
  0
LINE
  8
Meterkurven
 10
-16.56777131
 20
35.37374675
 11
-14.50967424
 21
35.08758154
  0
LINE
  8
Meterkurven
 10
-14.50967424
 20
35.08758154
 11
-12.47558527
 21
34.71774845
  0
LINE
  8
Meterkurven
 10
-12.47558527
 20
34.71774845
 11
-10.47335744
 21
34.23679662
  0
LINE
  8
Meterkurven
 10
-10.47335744
 20
34.23679662
 11
-8.273540672
 21
33.56560406
  0
LINE
  8
Meterkurven
 10
-8.273540672
 20
33.56560406
 11
-6.108043577
 21
32.78188264
  0
LINE
  8
Meterkurven
 10
-6.108043577
 20
32.78188264
 11
-3.973125189
 21
31.89988043
  0
LINE
  8
Meterkurven
 10
-3.973125189
 20
31.89988043
 11
-1.865044547
 21
30.93384548
  0
LINE
  8
Meterkurven
 10
-1.865044547
 20
30.93384548
 11
0.2199393119
 21
29.89802584
  0
LINE
  8
Meterkurven
 10
0.2199393119
 20
29.89802584
 11
2.285567349
 21
28.80666958
  0
LINE
  8
Meterkurven
 10
2.285567349
 20
28.80666958
 11
4.335580528
 21
27.67402475
  0
LINE
  8
Meterkurven
 10
4.335580528
 20
27.67402475
 11
6.37371981
 21
26.5143394
  0
LINE
  8
Meterkurven
 10
6.37371981
 20
26.5143394
 11
8.403726157
 21
25.3418616
  0
LINE
  8
Meterkurven
 10
8.403726157
 20
25.3418616
 11
10.42934053
 21
24.17083939
  0
LINE
  8
Meterkurven
 10
10.42934053
 20
24.17083939
 11
12.74600744
 21
22.82893193
  0
LINE
  8
Meterkurven
 10
12.74600744
 20
22.82893193
 11
15.05042472
 21
21.47310885
  0
LINE
  8
Meterkurven
 10
15.05042472
 20
21.47310885
 11
17.33935169
 21
20.09857966
  0
LINE
  8
Meterkurven
 10
17.33935169
 20
20.09857966
 11
19.6095477
 21
18.70055388
  0
LINE
  8
Meterkurven
 10
19.6095477
 20
18.70055388
 11
21.8577721
 21
17.27424102
  0
LINE
  8
Meterkurven
 10
21.8577721
 20
17.27424102
 11
24.08078422
 21
15.81485059
  0
LINE
  8
Meterkurven
 10
24.08078422
 20
15.81485059
 11
26.27534341
 21
14.3175921
  0
LINE
  8
Meterkurven
 10
26.27534341
 20
14.3175921
 11
28.43820901
 21
12.77767507
  0
LINE
  8
Meterkurven
 10
28.43820901
 20
12.77767507
 11
30.56614036
 21
 11.190309
  0
LINE
  8
Meterkurven
 10
30.56614036
 20
 11.190309
 11
32.6558968
 21
9.550703419
  0
LINE
  8
Meterkurven
 10
32.6558968
 20
9.550703419
 11
34.1034138
 21
8.358435399
  0
LINE
  8
Meterkurven
 10
34.1034138
 20
8.358435399
 11
35.54951975
 21
7.117815104
  0
LINE
  8
Meterkurven
 10
35.54951975
 20
7.117815104
 11
36.98614365
 21
5.839427189
  0
LINE
  8
Meterkurven
 10
36.98614365
 20
5.839427189
 11
38.40521454
 21
4.533856305
  0
LINE
  8
Meterkurven
 10
38.40521454
 20
4.533856305
 11
39.79866142
 21
3.211687106
  0
LINE
  8
Meterkurven
 10
39.79866142
 20
3.211687106
 11
41.15841332
 21
1.883504245
  0
LINE
  8
Meterkurven
 10
41.15841332
 20
1.883504245
 11
42.47639925
 21
0.5598923751
  0
LINE
  8
Meterkurven
 10
42.47639925
 20
0.5598923751
 11
43.74454824
 21
-0.7485638515
  0
LINE
  8
Meterkurven
 10
43.74454824
 20
-0.7485638515
 11
44.95478929
 21
-2.031279781
  0
LINE
  8
Meterkurven
 10
44.95478929
 20
-2.031279781
 11
46.09905144
 21
-3.277670762
  0
LINE
  8
Meterkurven
 10
3.950043441
 20
50.64718253
 11
5.766117356
 21
49.49449956
  0
LINE
  8
Meterkurven
 10
5.766117356
 20
49.49449956
 11
7.567872967
 21
48.31833354
  0
LINE
  8
Meterkurven
 10
7.567872967
 20
48.31833354
 11
9.357716715
 21
47.12264938
  0
LINE
  8
Meterkurven
 10
9.357716715
 20
47.12264938
 11
11.13805504
 21
45.91141201
  0
LINE
  8
Meterkurven
 10
11.13805504
 20
45.91141201
 11
12.91129437
 21
44.68858635
  0
LINE
  8
Meterkurven
 10
12.91129437
 20
44.68858635
 11
14.67984115
 21
43.45813732
  0
LINE
  8
Meterkurven
 10
14.67984115
 20
43.45813732
 11
16.44610183
 21
42.22402984
  0
LINE
  8
Meterkurven
 10
16.44610183
 20
42.22402984
 11
17.20622587
 21
41.69447151
  0
LINE
  8
Meterkurven
 10
17.20622587
 20
41.69447151
 11
17.97657826
 21
41.16080591
  0
LINE
  8
Meterkurven
 10
17.97657826
 20
41.16080591
 11
18.75279824
 21
40.62503595
  0
LINE
  8
Meterkurven
 10
18.75279824
 20
40.62503595
 11
19.53052508
 21
40.08916458
  0
LINE
  8
Meterkurven
 10
19.53052508
 20
40.08916458
 11
20.30539804
 21
39.55519472
  0
LINE
  8
Meterkurven
 10
20.30539804
 20
39.55519472
 11
21.07305639
 21
39.02512929
  0
LINE
  8
Meterkurven
 10
21.07305639
 20
39.02512929
 11
21.82913939
 21
38.50097123
  0
LINE
  8
Meterkurven
 10
21.82913939
 20
38.50097123
 11
22.5692863
 21
37.98472346
  0
LINE
  8
Meterkurven
 10
22.5692863
 20
37.98472346
 11
23.28913638
 21
37.47838892
  0
LINE
  8
Meterkurven
 10
-44.03904646
 20
22.23955755
 11
-42.21920063
 21
21.04514656
  0
LINE
  8
Meterkurven
 10
-42.21920063
 20
21.04514656
 11
-40.37811832
 21
19.87442101
  0
LINE
  8
Meterkurven
 10
-40.37811832
 20
19.87442101
 11
-38.51520571
 21
18.73521947
  0
LINE
  8
Meterkurven
 10
-38.51520571
 20
18.73521947
 11
-36.62986897
 21
17.63538049
  0
LINE
  8
Meterkurven
 10
-36.62986897
 20
17.63538049
 11
-34.72151427
 21
16.58274264
  0
LINE
  8
Meterkurven
 10
-34.72151427
 20
16.58274264
 11
-32.78954778
 21
15.58514446
  0
LINE
  8
Meterkurven
 10
-32.78954778
 20
15.58514446
 11
-30.83337567
 21
14.65042452
  0
LINE
  8
Meterkurven
 10
-30.83337567
 20
14.65042452
 11
-28.85240411
 21
13.78642138
  0
LINE
  8
Meterkurven
 10
-28.85240411
 20
13.78642138
 11
-26.84603927
 21
13.0009736
  0
LINE
  8
Meterkurven
 10
-26.84603927
 20
13.0009736
 11
-24.81368733
 21
12.30191973
  0
LINE
  8
Meterkurven
 10
-24.81368733
 20
12.30191973
 11
-22.88425216
 21
11.76283261
  0
LINE
  8
Meterkurven
 10
-22.88425216
 20
11.76283261
 11
-20.91636176
 21
11.34338048
  0
LINE
  8
Meterkurven
 10
-20.91636176
 20
11.34338048
 11
-18.9198446
 21
11.01334225
  0
LINE
  8
Meterkurven
 10
-18.9198446
 20
11.01334225
 11
-16.90452919
 21
10.74249683
  0
LINE
  8
Meterkurven
 10
-16.90452919
 20
10.74249683
 11
-14.880244
 21
10.50062316
  0
LINE
  8
Meterkurven
 10
-14.880244
 20
10.50062316
 11
-12.85681753
 21
10.25750014
  0
LINE
  8
Meterkurven
 10
-12.85681753
 20
10.25750014
 11
-10.84407826
 21
9.982906682
  0
LINE
  8
Meterkurven
 10
-10.84407826
 20
9.982906682
 11
-8.85185468
 21
9.646621711
  0
LINE
  8
Meterkurven
 10
-8.85185468
 20
9.646621711
 11
-6.889975277
 21
9.21842414
  0
LINE
  8
Meterkurven
 10
-6.889975277
 20
9.21842414
 11
-4.968268538
 21
8.668092886
  0
LINE
  8
Meterkurven
 10
-4.968268538
 20
8.668092886
 11
-3.585433165
 21
8.172919799
  0
LINE
  8
Meterkurven
 10
-3.585433165
 20
8.172919799
 11
-2.226780549
 21
7.609036415
  0
LINE
  8
Meterkurven
 10
-2.226780549
 20
7.609036415
 11
-0.8881816125
 21
6.987549397
  0
LINE
  8
Meterkurven
 10
-0.8881816125
 20
6.987549397
 11
0.4344927231
 21
6.319565404
  0
LINE
  8
Meterkurven
 10
0.4344927231
 20
6.319565404
 11
1.745371535
 21
5.616191097
  0
LINE
  8
Meterkurven
 10
1.745371535
 20
5.616191097
 11
3.048583902
 21
4.888533138
  0
LINE
  8
Meterkurven
 10
3.048583902
 20
4.888533138
 11
 4.3482589
 21
4.147698186
  0
LINE
  8
Meterkurven
 10
 4.3482589
 20
4.147698186
 11
5.648525607
 21
3.404792904
  0
LINE
  8
Meterkurven
 10
5.648525607
 20
3.404792904
 11
6.953513102
 21
2.67092395
  0
LINE
  8
Meterkurven
 10
6.953513102
 20
2.67092395
 11
8.267350461
 21
1.957197987
  0
LINE
  8
Meterkurven
 10
8.267350461
 20
1.957197987
 11
10.13746586
 21
0.9835063827
  0
LINE
  8
Meterkurven
 10
10.13746586
 20
0.9835063827
 11
12.01830613
 21
0.03125629084
  0
LINE
  8
Meterkurven
 10
12.01830613
 20
0.03125629084
 11
13.90322308
 21
-0.9100512826
  0
LINE
  8
Meterkurven
 10
13.90322308
 20
-0.9100512826
 11
15.7855685
 21
-1.850915331
  0
LINE
  8
Meterkurven
 10
15.7855685
 20
-1.850915331
 11
17.65869422
 21
-2.801834849
  0
LINE
  8
Meterkurven
 10
17.65869422
 20
-2.801834849
 11
19.51595202
 21
-3.77330883
  0
LINE
  8
Meterkurven
 10
19.51595202
 20
-3.77330883
 11
21.35069373
 21
-4.775836267
  0
LINE
  8
Meterkurven
 10
21.35069373
 20
-4.775836267
 11
23.15627115
 21
-5.819916154
  0
LINE
  8
Meterkurven
 10
23.15627115
 20
-5.819916154
 11
24.92603608
 21
-6.916047484
  0
LINE
  8
Meterkurven
 10
24.92603608
 20
-6.916047484
 11
26.65334033
 21
-8.074729253
  0
LINE
  8
Meterkurven
 10
26.65334033
 20
-8.074729253
 11
27.77398855
 21
-8.892512679
  0
LINE
  8
Meterkurven
 10
27.77398855
 20
-8.892512679
 11
28.8829656
 21
-9.763224276
  0
LINE
  8
Meterkurven
 10
28.8829656
 20
-9.763224276
 11
29.97597133
 21
-10.67700973
  0
LINE
  8
Meterkurven
 10
29.97597133
 20
-10.67700973
 11
31.04870558
 21
-11.62401473
  0
LINE
  8
Meterkurven
 10
31.04870558
 20
-11.62401473
 11
32.09686819
 21
-12.59438497
  0
LINE
  8
Meterkurven
 10
32.09686819
 20
-12.59438497
 11
33.11615898
 21
-13.57826612
  0
LINE
  8
Meterkurven
 10
33.11615898
 20
-13.57826612
 11
34.1022778
 21
-14.56580388
  0
LINE
  8
Meterkurven
 10
34.1022778
 20
-14.56580388
 11
35.05092449
 21
-15.54714394
  0
LINE
  8
Meterkurven
 10
35.05092449
 20
-15.54714394
 11
35.95779888
 21
-16.51243197
  0
LINE
  8
Meterkurven
 10
35.95779888
 20
-16.51243197
 11
36.8186008
 21
-17.45181368
  0
LINE
  8
Meterkurven
 10
-58.35491257
 20
14.47049713
 11
-57.38712763
 21
13.62072181
  0
LINE
  8
Meterkurven
 10
-57.38712763
 20
13.62072181
 11
-56.42379523
 21
12.76497589
  0
LINE
  8
Meterkurven
 10
-56.42379523
 20
12.76497589
 11
-55.46266661
 21
11.90630039
  0
LINE
  8
Meterkurven
 10
-55.46266661
 20
11.90630039
 11
-54.501493
 21
11.04773634
  0
LINE
  8
Meterkurven
 10
-54.501493
 20
11.04773634
 11
-53.53802562
 21
10.19232479
  0
LINE
  8
Meterkurven
 10
-53.53802562
 20
10.19232479
 11
-52.5824867
 21
9.346820447
  0
LINE
  8
Meterkurven
 10
-52.5824867
 20
9.346820447
 11
-51.62762335
 21
8.501004503
  0
LINE
  8
Meterkurven
 10
-51.62762335
 20
8.501004503
 11
-50.67210959
 21
7.65642965
  0
LINE
  8
Meterkurven
 10
-50.67210959
 20
7.65642965
 11
-49.71461941
 21
6.814648581
  0
LINE
  8
Meterkurven
 10
-49.71461941
 20
6.814648581
 11
-48.75382683
 21
5.977213988
  0
LINE
  8
Meterkurven
 10
-48.75382683
 20
5.977213988
 11
-47.78840584
 21
5.145678563
  0
LINE
  8
Meterkurven
 10
-47.78840584
 20
5.145678563
 11
-46.81703046
 21
4.321594998
  0
LINE
  8
Meterkurven
 10
-46.81703046
 20
4.321594998
 11
-45.83837467
 21
3.506515986
  0
LINE
  8
Meterkurven
 10
-45.83837467
 20
3.506515986
 11
-44.85111249
 21
2.701994218
  0
LINE
  8
Meterkurven
 10
-44.85111249
 20
2.701994218
 11
-43.85391792
 21
1.909582388
  0
LINE
  8
Meterkurven
 10
-43.85391792
 20
1.909582388
 11
-42.74717993
 21
1.051896521
  0
LINE
  8
Meterkurven
 10
-42.74717993
 20
1.051896521
 11
-41.63115825
 21
0.2059422339
  0
LINE
  8
Meterkurven
 10
-41.63115825
 20
0.2059422339
 11
-40.50634761
 21
-0.6287041797
  0
LINE
  8
Meterkurven
 10
-40.50634761
 20
-0.6287041797
 11
-39.37324274
 21
-1.452466427
  0
LINE
  8
Meterkurven
 10
-39.37324274
 20
-1.452466427
 11
-38.23233836
 21
-2.265768214
  0
LINE
  8
Meterkurven
 10
-38.23233836
 20
-2.265768214
 11
-37.08412918
 21
-3.069033248
  0
LINE
  8
Meterkurven
 10
-37.08412918
 20
-3.069033248
 11
-35.92910994
 21
-3.862685236
  0
LINE
  8
Meterkurven
 10
-35.92910994
 20
-3.862685236
 11
-34.76777535
 21
-4.647147885
  0
LINE
  8
Meterkurven
 10
-34.76777535
 20
-4.647147885
 11
-33.60062014
 21
-5.4228449
  0
LINE
  8
Meterkurven
 10
-33.60062014
 20
-5.4228449
 11
-32.42813903
 21
-6.190199989
  0
LINE
  8
Meterkurven
 10
-32.42813903
 20
-6.190199989
 11
-30.16232274
 21
-7.636787299
  0
LINE
  8
Meterkurven
 10
-30.16232274
 20
-7.636787299
 11
-27.8754773
 21
-9.048273359
  0
LINE
  8
Meterkurven
 10
-27.8754773
 20
-9.048273359
 11
-25.56895582
 21
-10.42683646
  0
LINE
  8
Meterkurven
 10
-25.56895582
 20
-10.42683646
 11
-23.24411141
 21
-11.77465491
  0
LINE
  8
Meterkurven
 10
-23.24411141
 20
-11.77465491
 11
-20.90229719
 21
-13.093907
  0
LINE
  8
Meterkurven
 10
-20.90229719
 20
-13.093907
 11
-18.54486626
 21
-14.38677103
  0
LINE
  8
Meterkurven
 10
-18.54486626
 20
-14.38677103
 11
-16.17317173
 21
-15.65542529
  0
LINE
  8
Meterkurven
 10
-16.17317173
 20
-15.65542529
 11
-13.78856672
 21
-16.90204808
  0
LINE
  8
Meterkurven
 10
-13.78856672
 20
-16.90204808
 11
-11.39240435
 21
-18.12881769
  0
LINE
  8
Meterkurven
 10
-11.39240435
 20
-18.12881769
 11
-8.986037712
 21
-19.33791243
  0
LINE
  8
Meterkurven
 10
-8.986037712
 20
-19.33791243
 11
-8.076049988
 21
-19.79597554
  0
LINE
  8
Meterkurven
 10
-8.076049988
 20
-19.79597554
 11
-7.167325353
 21
-20.25940526
  0
LINE
  8
Meterkurven
 10
-7.167325353
 20
-20.25940526
 11
-6.258418448
 21
-20.72358342
  0
LINE
  8
Meterkurven
 10
-6.258418448
 20
-20.72358342
 11
-5.347883912
 21
-21.18389183
  0
LINE
  8
Meterkurven
 10
-5.347883912
 20
-21.18389183
 11
-4.434276385
 21
-21.6357123
  0
LINE
  8
Meterkurven
 10
-4.434276385
 20
-21.6357123
 11
-3.516150506
 21
-22.07442665
  0
LINE
  8
Meterkurven
 10
-3.516150506
 20
-22.07442665
 11
-2.592060915
 21
-22.49541669
  0
LINE
  8
Meterkurven
 10
-2.592060915
 20
-22.49541669
 11
-1.660562253
 21
-22.89406423
  0
LINE
  8
Meterkurven
 10
-1.660562253
 20
-22.89406423
 11
-0.7202091591
 21
-23.26575108
  0
LINE
  8
Meterkurven
 10
-0.7202091591
 20
-23.26575108
 11
0.2304437273
 21
-23.60585907
  0
LINE
  8
Meterkurven
 10
0.2304437273
 20
-23.60585907
 11
1.118517183
 21
-23.88860547
  0
LINE
  8
Meterkurven
 10
1.118517183
 20
-23.88860547
 11
2.016742264
 21
-24.14253961
  0
LINE
  8
Meterkurven
 10
2.016742264
 20
-24.14253961
 11
2.923963829
 21
-24.3699408
  0
LINE
  8
Meterkurven
 10
2.923963829
 20
-24.3699408
 11
3.839026739
 21
-24.57308834
  0
LINE
  8
Meterkurven
 10
3.839026739
 20
-24.57308834
 11
4.760775851
 21
-24.75426156
  0
LINE
  8
Meterkurven
 10
4.760775851
 20
-24.75426156
 11
5.688056024
 21
-24.91573977
  0
LINE
  8
Meterkurven
 10
5.688056024
 20
-24.91573977
 11
6.619712117
 21
-25.05980228
  0
LINE
  8
Meterkurven
 10
6.619712117
 20
-25.05980228
 11
7.55458899
 21
-25.1887284
  0
LINE
  8
Meterkurven
 10
7.55458899
 20
-25.1887284
 11
 8.4915315
 21
-25.30479745
  0
LINE
  8
Meterkurven
 10
 8.4915315
 20
-25.30479745
 11
9.429384507
 21
-25.41028874
  0
LINE
  8
Meterkurven
 10
9.429384507
 20
-25.41028874
 11
10.38991581
 21
-25.50625774
  0
LINE
  8
Meterkurven
 10
10.38991581
 20
-25.50625774
 11
11.35186446
 21
-25.5908776
  0
LINE
  8
Meterkurven
 10
11.35186446
 20
-25.5908776
 11
12.31409663
 21
-25.66905418
  0
LINE
  8
Meterkurven
 10
12.31409663
 20
-25.66905418
 11
13.27547852
 21
-25.74569333
  0
LINE
  8
Meterkurven
 10
13.27547852
 20
-25.74569333
 11
14.23487631
 21
-25.82570091
  0
LINE
  8
Meterkurven
 10
14.23487631
 20
-25.82570091
 11
15.19115619
 21
-25.91398276
  0
LINE
  8
Meterkurven
 10
15.19115619
 20
-25.91398276
 11
16.14318435
 21
-26.01544474
  0
LINE
  8
Meterkurven
 10
16.14318435
 20
-26.01544474
 11
17.08982698
 21
-26.13499271
  0
LINE
  8
Meterkurven
 10
17.08982698
 20
-26.13499271
 11
18.02995027
 21
-26.27753253
  0
LINE
  8
Meterkurven
 10
18.02995027
 20
-26.27753253
 11
18.9624204
 21
-26.44797003
  0
LINE
  8
Meterkurven
 10
18.9624204
 20
-26.44797003
 11
19.94965795
 21
-26.6850218
  0
LINE
  8
Meterkurven
 10
19.94965795
 20
-26.6850218
 11
20.93773383
 21
-26.99435016
  0
LINE
  8
Meterkurven
 10
20.93773383
 20
-26.99435016
 11
21.92073001
 21
-27.36529502
  0
LINE
  8
Meterkurven
 10
21.92073001
 20
-27.36529502
 11
22.89272843
 21
-27.78719633
  0
LINE
  8
Meterkurven
 10
22.89272843
 20
-27.78719633
 11
23.84781107
 21
-28.249394
  0
LINE
  8
Meterkurven
 10
23.84781107
 20
-28.249394
 11
24.78005989
 21
-28.74122797
  0
LINE
  8
Meterkurven
 10
24.78005989
 20
-28.74122797
 11
25.68355684
 21
-29.25203815
  0
LINE
  8
Meterkurven
 10
25.68355684
 20
-29.25203815
 11
26.55238391
 21
-29.77116448
  0
LINE
  8
Meterkurven
 10
26.55238391
 20
-29.77116448
 11
27.38062303
 21
-30.28794689
  0
LINE
  8
Meterkurven
 10
27.38062303
 20
-30.28794689
 11
28.16235618
 21
-30.7917253
  0
LINE
  8
Meterkurven
 10
-71.47161211
 20
8.099975304
 11
-70.95412007
 21
7.624974357
  0
LINE
  8
Meterkurven
 10
-70.95412007
 20
7.624974357
 11
-70.43603481
 21
7.149560708
  0
LINE
  8
Meterkurven
 10
-70.43603481
 20
7.149560708
 11
-69.91382145
 21
6.678648626
  0
LINE
  8
Meterkurven
 10
-69.91382145
 20
6.678648626
 11
-69.38394509
 21
6.217152375
  0
LINE
  8
Meterkurven
 10
-69.38394509
 20
6.217152375
 11
-68.84287084
 21
5.769986223
  0
LINE
  8
Meterkurven
 10
-68.84287084
 20
5.769986223
 11
-68.09622132
 21
5.192492214
  0
LINE
  8
Meterkurven
 10
-68.09622132
 20
5.192492214
 11
-67.33344316
 21
4.633955885
  0
LINE
  8
Meterkurven
 10
-67.33344316
 20
4.633955885
 11
-66.5608617
 21
4.08742165
  0
LINE
  8
Meterkurven
 10
-66.5608617
 20
4.08742165
 11
-65.78480231
 21
3.545933929
  0
LINE
  8
Meterkurven
 10
-65.78480231
 20
3.545933929
 11
-65.01159033
 21
3.002537136
  0
LINE
  8
Meterkurven
 10
-65.01159033
 20
3.002537136
 11
-64.24755113
 21
2.450275689
  0
LINE
  8
Meterkurven
 10
-64.24755113
 20
2.450275689
 11
-63.49901006
 21
1.882194005
  0
LINE
  8
Meterkurven
 10
-63.49901006
 20
1.882194005
 11
-62.77229248
 21
 1.2913365
  0
LINE
  8
Meterkurven
 10
-62.77229248
 20
 1.2913365
 11
-62.07372374
 21
0.670747591
  0
LINE
  8
Meterkurven
 10
-62.07372374
 20
0.670747591
 11
-61.4096292
 21
0.01347169466
  0
LINE
  8
Meterkurven
 10
-61.4096292
 20
0.01347169466
 11
-60.79081488
 21
-0.6702984893
  0
LINE
  8
Meterkurven
 10
-60.79081488
 20
-0.6702984893
 11
-60.19849768
 21
-1.38234963
  0
LINE
  8
Meterkurven
 10
-60.19849768
 20
-1.38234963
 11
-59.62569978
 21
-2.114926036
  0
LINE
  8
Meterkurven
 10
-59.62569978
 20
-2.114926036
 11
-59.06544333
 21
-2.860272019
  0
LINE
  8
Meterkurven
 10
-59.06544333
 20
-2.860272019
 11
-58.5107505
 21
-3.610631886
  0
LINE
  8
Meterkurven
 10
-58.5107505
 20
-3.610631886
 11
-57.95464342
 21
-4.358249948
  0
LINE
  8
Meterkurven
 10
-57.95464342
 20
-4.358249948
 11
-57.39014428
 21
-5.095370514
  0
LINE
  8
Meterkurven
 10
-57.39014428
 20
-5.095370514
 11
-56.81027521
 21
-5.814237895
  0
LINE
  8
Meterkurven
 10
-56.81027521
 20
-5.814237895
 11
-56.20805839
 21
-6.507096399
  0
LINE
  8
Meterkurven
 10
-56.20805839
 20
-6.507096399
 11
-55.57651597
 21
-7.166190336
  0
LINE
  8
Meterkurven
 10
-55.57651597
 20
-7.166190336
 11
-53.53506755
 21
-9.000295009
  0
LINE
  8
Meterkurven
 10
-53.53506755
 20
-9.000295009
 11
-51.34410455
 21
-10.66024117
  0
LINE
  8
Meterkurven
 10
-51.34410455
 20
-10.66024117
 11
-49.02912173
 21
-12.1763939
  0
LINE
  8
Meterkurven
 10
-49.02912173
 20
-12.1763939
 11
-46.61561387
 21
-13.57911832
  0
LINE
  8
Meterkurven
 10
-46.61561387
 20
-13.57911832
 11
-44.12907575
 21
-14.89877951
  0
LINE
  8
Meterkurven
 10
-44.12907575
 20
-14.89877951
 11
-41.59500214
 21
-16.16574258
  0
LINE
  8
Meterkurven
 10
-41.59500214
 20
-16.16574258
 11
-39.03888781
 21
-17.41037261
  0
LINE
  8
Meterkurven
 10
-39.03888781
 20
-17.41037261
 11
-36.48622753
 21
-18.66303472
  0
LINE
  8
Meterkurven
 10
-36.48622753
 20
-18.66303472
 11
-33.96251608
 21
-19.95409398
  0
LINE
  8
Meterkurven
 10
-33.96251608
 20
-19.95409398
 11
-31.49324824
 21
-21.31391551
  0
LINE
  8
Meterkurven
 10
-31.49324824
 20
-21.31391551
 11
-30.74811839
 21
-21.75204765
  0
LINE
  8
Meterkurven
 10
-30.74811839
 20
-21.75204765
 11
-30.01122097
 21
-22.20025849
  0
LINE
  8
Meterkurven
 10
-30.01122097
 20
-22.20025849
 11
-29.28129092
 21
-22.65709909
  0
LINE
  8
Meterkurven
 10
-29.28129092
 20
-22.65709909
 11
-28.55706324
 21
-23.12112048
  0
LINE
  8
Meterkurven
 10
-28.55706324
 20
-23.12112048
 11
-27.83727288
 21
-23.59087371
  0
LINE
  8
Meterkurven
 10
-27.83727288
 20
-23.59087371
 11
-27.12065483
 21
-24.06490984
  0
LINE
  8
Meterkurven
 10
-27.12065483
 20
-24.06490984
 11
-26.40594405
 21
-24.54177992
  0
LINE
  8
Meterkurven
 10
-26.40594405
 20
-24.54177992
 11
-25.69187552
 21
-25.02003498
  0
LINE
  8
Meterkurven
 10
-25.69187552
 20
-25.02003498
 11
-24.9771842
 21
-25.49822608
  0
LINE
  8
Meterkurven
 10
-24.9771842
 20
-25.49822608
 11
-24.26060507
 21
-25.97490427
  0
LINE
  8
Meterkurven
 10
-24.26060507
 20
-25.97490427
 11
-23.19969425
 21
-26.69775703
  0
LINE
  8
Meterkurven
 10
-23.19969425
 20
-26.69775703
 11
-22.15117247
 21
-27.44417461
  0
LINE
  8
Meterkurven
 10
-22.15117247
 20
-27.44417461
 11
-21.10997789
 21
-28.20427973
  0
LINE
  8
Meterkurven
 10
-21.10997789
 20
-28.20427973
 11
-20.07104868
 21
-28.96819516
  0
LINE
  8
Meterkurven
 10
-20.07104868
 20
-28.96819516
 11
-19.02932299
 21
-29.72604363
  0
LINE
  8
Meterkurven
 10
-19.02932299
 20
-29.72604363
 11
-17.97973899
 21
-30.4679479
  0
LINE
  8
Meterkurven
 10
-17.97973899
 20
-30.4679479
 11
-16.91723484
 21
-31.1840307
  0
LINE
  8
Meterkurven
 10
-16.91723484
 20
-31.1840307
 11
-15.83674871
 21
-31.86441479
  0
LINE
  8
Meterkurven
 10
-15.83674871
 20
-31.86441479
 11
-14.73321874
 21
-32.4992229
  0
LINE
  8
Meterkurven
 10
-14.73321874
 20
-32.4992229
 11
-13.60158311
 21
-33.07857779
  0
LINE
  8
Meterkurven
 10
-13.60158311
 20
-33.07857779
 11
-12.91148048
 21
-33.3942142
  0
LINE
  8
Meterkurven
 10
-12.91148048
 20
-33.3942142
 11
-12.20887704
 21
-33.68827452
  0
LINE
  8
Meterkurven
 10
-12.20887704
 20
-33.68827452
 11
-11.49520568
 21
-33.9612485
  0
LINE
  8
Meterkurven
 10
-11.49520568
 20
-33.9612485
 11
-10.77189929
 21
-34.21362587
  0
LINE
  8
Meterkurven
 10
-10.77189929
 20
-34.21362587
 11
-10.04039076
 21
-34.44589638
  0
LINE
  8
Meterkurven
 10
-10.04039076
 20
-34.44589638
 11
-9.302112977
 21
-34.65854974
  0
LINE
  8
Meterkurven
 10
-9.302112977
 20
-34.65854974
 11
-8.558498835
 21
-34.85207571
  0
LINE
  8
Meterkurven
 10
-8.558498835
 20
-34.85207571
 11
-7.81098122
 21
-35.02696403
  0
LINE
  8
Meterkurven
 10
-7.81098122
 20
-35.02696403
 11
-7.060993019
 21
-35.18370442
  0
LINE
  8
Meterkurven
 10
-7.060993019
 20
-35.18370442
 11
-6.309967124
 21
-35.32278662
  0
LINE
  8
Meterkurven
 10
-6.309967124
 20
-35.32278662
 11
-5.752531136
 21
-35.41079028
  0
LINE
  8
Meterkurven
 10
-5.752531136
 20
-35.41079028
 11
-5.193213141
 21
-35.48331922
  0
LINE
  8
Meterkurven
 10
-5.193213141
 20
-35.48331922
 11
-4.632256353
 21
-35.54299989
  0
LINE
  8
Meterkurven
 10
-4.632256353
 20
-35.54299989
 11
-4.06990399
 21
-35.59245876
  0
LINE
  8
Meterkurven
 10
-4.06990399
 20
-35.59245876
 11
-3.506399266
 21
-35.63432227
  0
LINE
  8
Meterkurven
 10
-3.506399266
 20
-35.63432227
 11
-2.941985397
 21
-35.67121687
  0
LINE
  8
Meterkurven
 10
-2.941985397
 20
-35.67121687
 11
-2.3769056
 21
-35.70576903
  0
LINE
  8
Meterkurven
 10
-2.3769056
 20
-35.70576903
 11
-1.81140309
 21
-35.7406052
  0
LINE
  8
Meterkurven
 10
-1.81140309
 20
-35.7406052
 11
-1.245721083
 21
-35.77835182
  0
LINE
  8
Meterkurven
 10
-1.245721083
 20
-35.77835182
 11
-0.6801027943
 21
-35.82163536
  0
LINE
  8
Meterkurven
 10
-0.6801027943
 20
-35.82163536
 11
0.03492820845
 21
-35.88462943
  0
LINE
  8
Meterkurven
 10
0.03492820845
 20
-35.88462943
 11
0.7494815914
 21
-35.95574044
  0
LINE
  8
Meterkurven
 10
0.7494815914
 20
-35.95574044
 11
1.462943432
 21
-36.03617691
  0
LINE
  8
Meterkurven
 10
1.462943432
 20
-36.03617691
 11
2.174699808
 21
-36.12714736
  0
LINE
  8
Meterkurven
 10
2.174699808
 20
-36.12714736
 11
2.884136797
 21
-36.22986032
  0
LINE
  8
Meterkurven
 10
2.884136797
 20
-36.22986032
 11
3.590640476
 21
-36.34552432
  0
LINE
  8
Meterkurven
 10
3.590640476
 20
-36.34552432
 11
4.293596922
 21
-36.47534786
  0
LINE
  8
Meterkurven
 10
4.293596922
 20
-36.47534786
 11
4.992392214
 21
-36.62053948
  0
LINE
  8
Meterkurven
 10
4.992392214
 20
-36.62053948
 11
5.686412429
 21
-36.7823077
  0
LINE
  8
Meterkurven
 10
5.686412429
 20
-36.7823077
 11
6.375043644
 21
-36.96186105
  0
LINE
  8
Meterkurven
 10
6.375043644
 20
-36.96186105
 11
6.846004548
 21
-37.10029468
  0
LINE
  8
Meterkurven
 10
6.846004548
 20
-37.10029468
 11
7.319383684
 21
-37.25563999
  0
LINE
  8
Meterkurven
 10
7.319383684
 20
-37.25563999
 11
7.792740064
 21
-37.42539649
  0
LINE
  8
Meterkurven
 10
7.792740064
 20
-37.42539649
 11
8.263632698
 21
-37.60706368
  0
LINE
  8
Meterkurven
 10
8.263632698
 20
-37.60706368
 11
8.729620596
 21
-37.79814104
  0
LINE
  8
Meterkurven
 10
8.729620596
 20
-37.79814104
 11
9.188262769
 21
-37.99612809
  0
LINE
  8
Meterkurven
 10
9.188262769
 20
-37.99612809
 11
9.637118229
 21
-38.1985243
  0
LINE
  8
Meterkurven
 10
9.637118229
 20
-38.1985243
 11
10.07374598
 21
-38.40282919
  0
LINE
  8
Meterkurven
 10
10.07374598
 20
-38.40282919
 11
10.49570505
 21
-38.60654224
  0
LINE
  8
Meterkurven
 10
-81.52209197
 20
1.647398379
 11
-80.6943699
 21
1.203090697
  0
LINE
  8
Meterkurven
 10
-80.6943699
 20
1.203090697
 11
-79.87174456
 21
0.7471406671
  0
LINE
  8
Meterkurven
 10
-79.87174456
 20
0.7471406671
 11
-79.05291917
 21
0.2836108516
  0
LINE
  8
Meterkurven
 10
-79.05291917
 20
0.2836108516
 11
-78.23659697
 21
-0.1834361886
  0
LINE
  8
Meterkurven
 10
-78.23659697
 20
-0.1834361886
 11
-77.42148117
 21
-0.6499378923
  0
LINE
  8
Meterkurven
 10
-77.42148117
 20
-0.6499378923
 11
-76.695439
 21
-1.064688555
  0
LINE
  8
Meterkurven
 10
-76.695439
 20
-1.064688555
 11
-75.97067365
 21
-1.480826063
  0
LINE
  8
Meterkurven
 10
-75.97067365
 20
-1.480826063
 11
-75.24782017
 21
-1.899393297
  0
LINE
  8
Meterkurven
 10
-75.24782017
 20
-1.899393297
 11
-74.52751361
 21
-2.32143314
  0
LINE
  8
Meterkurven
 10
-74.52751361
 20
-2.32143314
 11
-73.81038904
 21
-2.747988472
  0
LINE
  8
Meterkurven
 10
-73.81038904
 20
-2.747988472
 11
-73.0970815
 21
-3.180102178
  0
LINE
  8
Meterkurven
 10
-73.0970815
 20
-3.180102178
 11
-72.38822605
 21
-3.618817138
  0
LINE
  8
Meterkurven
 10
-72.38822605
 20
-3.618817138
 11
-71.68445775
 21
-4.065176234
  0
LINE
  8
Meterkurven
 10
-71.68445775
 20
-4.065176234
 11
-70.98641165
 21
-4.520222349
  0
LINE
  8
Meterkurven
 10
-70.98641165
 20
-4.520222349
 11
-70.29472281
 21
-4.984998364
  0
LINE
  8
Meterkurven
 10
-70.29472281
 20
-4.984998364
 11
-69.50050241
 21
-5.535278952
  0
LINE
  8
Meterkurven
 10
-69.50050241
 20
-5.535278952
 11
-68.71305817
 21
-6.095462838
  0
LINE
  8
Meterkurven
 10
-68.71305817
 20
-6.095462838
 11
-67.9314065
 21
-6.664119846
  0
LINE
  8
Meterkurven
 10
-67.9314065
 20
-6.664119846
 11
-67.15456382
 21
-7.239819801
  0
LINE
  8
Meterkurven
 10
-67.15456382
 20
-7.239819801
 11
-66.38154655
 21
-7.821132527
  0
LINE
  8
Meterkurven
 10
-66.38154655
 20
-7.821132527
 11
-65.61137109
 21
-8.406627847
  0
LINE
  8
Meterkurven
 10
-65.61137109
 20
-8.406627847
 11
-64.84305386
 21
-8.994875586
  0
LINE
  8
Meterkurven
 10
-64.84305386
 20
-8.994875586
 11
-64.07561128
 21
-9.584445568
  0
LINE
  8
Meterkurven
 10
-64.07561128
 20
-9.584445568
 11
-63.30805975
 21
-10.17390762
  0
LINE
  8
Meterkurven
 10
-63.30805975
 20
-10.17390762
 11
-62.5394157
 21
-10.76183156
  0
LINE
  8
Meterkurven
 10
-62.5394157
 20
-10.76183156
 11
-61.13831616
 21
-11.83195339
  0
LINE
  8
Meterkurven
 10
-61.13831616
 20
-11.83195339
 11
-59.73811201
 21
-12.90306335
  0
LINE
  8
Meterkurven
 10
-59.73811201
 20
-12.90306335
 11
-58.33727115
 21
-13.97305145
  0
LINE
  8
Meterkurven
 10
-58.33727115
 20
-13.97305145
 11
-56.93426148
 21
-15.0398077
  0
LINE
  8
Meterkurven
 10
-56.93426148
 20
-15.0398077
 11
-55.52755087
 21
-16.10122208
  0
LINE
  8
Meterkurven
 10
-55.52755087
 20
-16.10122208
 11
-54.11560722
 21
-17.15518462
  0
LINE
  8
Meterkurven
 10
-54.11560722
 20
-17.15518462
 11
-52.69689842
 21
-18.1995853
  0
LINE
  8
Meterkurven
 10
-52.69689842
 20
-18.1995853
 11
-51.26989237
 21
-19.23231414
  0
LINE
  8
Meterkurven
 10
-51.26989237
 20
-19.23231414
 11
-49.83305694
 21
-20.25126114
  0
LINE
  8
Meterkurven
 10
-49.83305694
 20
-20.25126114
 11
-48.38486004
 21
-21.25431629
  0
LINE
  8
Meterkurven
 10
-48.38486004
 20
-21.25431629
 11
-46.99319163
 21
-22.19401779
  0
LINE
  8
Meterkurven
 10
-46.99319163
 20
-22.19401779
 11
-45.59095161
 21
-23.11798891
  0
LINE
  8
Meterkurven
 10
-45.59095161
 20
-23.11798891
 11
-44.17870932
 21
-24.0268658
  0
LINE
  8
Meterkurven
 10
-44.17870932
 20
-24.0268658
 11
-42.75703411
 21
-24.9212846
  0
LINE
  8
Meterkurven
 10
-42.75703411
 20
-24.9212846
 11
-41.32649532
 21
-25.80188145
  0
LINE
  8
Meterkurven
 10
-41.32649532
 20
-25.80188145
 11
-39.88766231
 21
-26.66929248
  0
LINE
  8
Meterkurven
 10
-39.88766231
 20
-26.66929248
 11
-38.44110441
 21
-27.52415384
  0
LINE
  8
Meterkurven
 10
-38.44110441
 20
-27.52415384
 11
-36.98739097
 21
-28.36710167
  0
LINE
  8
Meterkurven
 10
-36.98739097
 20
-28.36710167
 11
-35.52709133
 21
-29.19877209
  0
LINE
  8
Meterkurven
 10
-35.52709133
 20
-29.19877209
 11
-34.06077485
 21
-30.01980126
  0
LINE
  8
Meterkurven
 10
-34.06077485
 20
-30.01980126
 11
-32.82603429
 21
-30.70422082
  0
LINE
  8
Meterkurven
 10
-32.82603429
 20
-30.70422082
 11
-31.58841807
 21
-31.38504683
  0
LINE
  8
Meterkurven
 10
-31.58841807
 20
-31.38504683
 11
-30.34677066
 21
-32.05910776
  0
LINE
  8
Meterkurven
 10
-30.34677066
 20
-32.05910776
 11
-29.09993651
 21
-32.72323205
  0
LINE
  8
Meterkurven
 10
-29.09993651
 20
-32.72323205
 11
-27.8467601
 21
-33.37424815
  0
LINE
  8
Meterkurven
 10
-27.8467601
 20
-33.37424815
 11
-26.58608591
 21
-34.00898451
  0
LINE
  8
Meterkurven
 10
-26.58608591
 20
-34.00898451
 11
-25.31675838
 21
-34.6242696
  0
LINE
  8
Meterkurven
 10
-25.31675838
 20
-34.6242696
 11
-24.03762201
 21
-35.21693184
  0
LINE
  8
Meterkurven
 10
-24.03762201
 20
-35.21693184
 11
-22.74752124
 21
-35.7837997
  0
LINE
  8
Meterkurven
 10
-22.74752124
 20
-35.7837997
 11
-21.44530056
 21
-36.32170163
  0
LINE
  8
Meterkurven
 10
-21.44530056
 20
-36.32170163
 11
-20.80173426
 21
-36.56687645
  0
LINE
  8
Meterkurven
 10
-20.80173426
 20
-36.56687645
 11
-20.15092843
 21
-36.79534598
  0
LINE
  8
Meterkurven
 10
-20.15092843
 20
-36.79534598
 11
-19.49507262
 21
-37.0119692
  0
LINE
  8
Meterkurven
 10
-19.49507262
 20
-37.0119692
 11
-18.83635643
 21
-37.22160512
  0
LINE
  8
Meterkurven
 10
-18.83635643
 20
-37.22160512
 11
-18.17696944
 21
-37.42911276
  0
LINE
  8
Meterkurven
 10
-18.17696944
 20
-37.42911276
 11
-17.51910121
 21
-37.63935111
  0
LINE
  8
Meterkurven
 10
-17.51910121
 20
-37.63935111
 11
-16.86494133
 21
-37.85717919
  0
LINE
  8
Meterkurven
 10
-16.86494133
 20
-37.85717919
 11
-16.21667938
 21
-38.08745599
  0
LINE
  8
Meterkurven
 10
-16.21667938
 20
-38.08745599
 11
-15.57650493
 21
-38.33504051
  0
LINE
  8
Meterkurven
 10
-15.57650493
 20
-38.33504051
 11
-14.94660757
 21
-38.60479178
  0
LINE
  8
Meterkurven
 10
-14.94660757
 20
-38.60479178
 11
-14.41486275
 21
-38.85421112
  0
LINE
  8
Meterkurven
 10
-14.41486275
 20
-38.85421112
 11
-13.88797036
 21
-39.11902531
  0
LINE
  8
Meterkurven
 10
-13.88797036
 20
-39.11902531
 11
-13.36694283
 21
-39.39895602
  0
LINE
  8
Meterkurven
 10
-13.36694283
 20
-39.39895602
 11
-12.85279262
 21
-39.69372492
  0
LINE
  8
Meterkurven
 10
-12.85279262
 20
-39.69372492
 11
-12.34653217
 21
-40.00305367
  0
LINE
  8
Meterkurven
 10
-12.34653217
 20
-40.00305367
 11
-11.84917393
 21
-40.32666394
  0
LINE
  8
Meterkurven
 10
-11.84917393
 20
-40.32666394
 11
-11.36173034
 21
-40.6642774
  0
LINE
  8
Meterkurven
 10
-11.36173034
 20
-40.6642774
 11
-10.88521386
 21
-41.01561572
  0
LINE
  8
Meterkurven
 10
-10.88521386
 20
-41.01561572
 11
-10.42063693
 21
-41.38040056
  0
LINE
  8
Meterkurven
 10
-10.42063693
 20
-41.38040056
 11
-9.969011998
 21
-41.75835359
  0
LINE
  8
Meterkurven
 10
-9.969011998
 20
-41.75835359
 11
-9.739240223
 21
-41.9617427
  0
LINE
  8
Meterkurven
 10
-9.739240223
 20
-41.9617427
 11
-9.512835708
 21
-42.17137647
  0
LINE
  8
Meterkurven
 10
-9.512835708
 20
-42.17137647
 11
-9.290008099
 21
-42.3864044
  0
LINE
  8
Meterkurven
 10
-9.290008099
 20
-42.3864044
 11
-9.070967041
 21
-42.60597602
  0
LINE
  8
Meterkurven
 10
-9.070967041
 20
-42.60597602
 11
-8.855922182
 21
-42.82924085
  0
LINE
  8
Meterkurven
 10
-8.855922182
 20
-42.82924085
 11
-8.645083167
 21
-43.05534838
  0
LINE
  8
Meterkurven
 10
-8.645083167
 20
-43.05534838
 11
-8.438659644
 21
-43.28344815
  0
LINE
  8
Meterkurven
 10
-8.438659644
 20
-43.28344815
 11
-8.236861258
 21
-43.51268966
  0
LINE
  8
Meterkurven
 10
-8.236861258
 20
-43.51268966
 11
-8.039897657
 21
-43.74222243
  0
LINE
  8
Meterkurven
 10
-45.82936421
 20
-38.37168929
 11
-45.29646177
 21
-38.73496948
  0
LINE
  8
Meterkurven
 10
-45.29646177
 20
-38.73496948
 11
-44.70240837
 21
-39.11962682
  0
LINE
  8
Meterkurven
 10
-44.70240837
 20
-39.11962682
 11
-44.05699815
 21
-39.52065754
  0
LINE
  8
Meterkurven
 10
-44.05699815
 20
-39.52065754
 11
-43.37002526
 21
-39.9330579
  0
LINE
  8
Meterkurven
 10
-43.37002526
 20
-39.9330579
 11
-42.65128385
 21
-40.35182412
  0
LINE
  8
Meterkurven
 10
-42.65128385
 20
-40.35182412
 11
-41.91056807
 21
-40.77195245
  0
LINE
  8
Meterkurven
 10
-41.91056807
 20
-40.77195245
 11
-41.15767207
 21
-41.18843912
  0
LINE
  8
Meterkurven
 10
-41.15767207
 20
-41.18843912
 11
 -40.40239
 21
-41.59628037
  0
LINE
  8
Meterkurven
 10
 -40.40239
 20
-41.59628037
 11
-39.65451601
 21
-41.99047245
  0
LINE
  8
Meterkurven
 10
-39.65451601
 20
-41.99047245
 11
-38.92384424
 21
-42.36601159
  0
LINE
  8
Meterkurven
 10
-38.92384424
 20
-42.36601159
 11
-38.22654719
 21
-42.71342572
  0
LINE
  8
Meterkurven
 10
-38.22654719
 20
-42.71342572
 11
-37.52412565
 21
-43.04952685
  0
LINE
  8
Meterkurven
 10
-37.52412565
 20
-43.04952685
 11
-36.81644817
 21
-43.3721807
  0
LINE
  8
Meterkurven
 10
-36.81644817
 20
-43.3721807
 11
-36.10338333
 21
-43.67925301
  0
LINE
  8
Meterkurven
 10
-36.10338333
 20
-43.67925301
 11
-35.38479969
 21
-43.96860949
  0
LINE
  8
Meterkurven
 10
-35.38479969
 20
-43.96860949
 11
-34.66056581
 21
-44.23811588
  0
LINE
  8
Meterkurven
 10
-34.66056581
 20
-44.23811588
 11
-33.93055026
 21
-44.48563789
  0
LINE
  8
Meterkurven
 10
-33.93055026
 20
-44.48563789
 11
-33.19462161
 21
-44.70904125
  0
LINE
  8
Meterkurven
 10
-33.19462161
 20
-44.70904125
 11
-32.45264842
 21
-44.9061917
  0
LINE
  8
Meterkurven
 10
-32.45264842
 20
-44.9061917
 11
-31.70449926
 21
-45.07495495
  0
LINE
  8
Meterkurven
 10
-31.70449926
 20
-45.07495495
 11
-31.21193586
 21
-45.1658329
  0
LINE
  8
Meterkurven
 10
-31.21193586
 20
-45.1658329
 11
-30.71615821
 21
-45.23930193
  0
LINE
  8
Meterkurven
 10
-30.71615821
 20
-45.23930193
 11
-30.21761599
 21
-45.29815821
  0
LINE
  8
Meterkurven
 10
-30.21761599
 20
-45.29815821
 11
-29.71675884
 21
-45.34519792
  0
LINE
  8
Meterkurven
 10
-29.71675884
 20
-45.34519792
 11
-29.21403643
 21
-45.38321725
  0
LINE
  8
Meterkurven
 10
-29.21403643
 20
-45.38321725
 11
-28.7098984
 21
-45.41501235
  0
LINE
  8
Meterkurven
 10
-28.7098984
 20
-45.41501235
 11
-28.20479443
 21
-45.44337942
  0
LINE
  8
Meterkurven
 10
-28.20479443
 20
-45.44337942
 11
-27.69917417
 21
-45.47111463
  0
LINE
  8
Meterkurven
 10
-27.69917417
 20
-45.47111463
 11
-27.19348727
 21
-45.50101414
  0
LINE
  8
Meterkurven
 10
-27.19348727
 20
-45.50101414
 11
-26.6881834
 21
-45.53587415
  0
LINE
  8
Meterkurven
 10
-26.6881834
 20
-45.53587415
 11
-26.25173217
 21
-45.56732132
  0
LINE
  8
Meterkurven
 10
-26.25173217
 20
-45.56732132
 11
-25.81395909
 21
-45.5974352
  0
LINE
  8
Meterkurven
 10
-25.81395909
 20
-45.5974352
 11
-25.37584853
 21
-45.62888845
  0
LINE
  8
Meterkurven
 10
-25.37584853
 20
-45.62888845
 11
-24.93838485
 21
-45.66435376
  0
LINE
  8
Meterkurven
 10
-24.93838485
 20
-45.66435376
 11
-24.50255241
 21
-45.70650379
  0
LINE
  8
Meterkurven
 10
-24.50255241
 20
-45.70650379
 11
-24.06933559
 21
-45.75801121
  0
LINE
  8
Meterkurven
 10
-24.06933559
 20
-45.75801121
 11
-23.63971874
 21
-45.82154871
  0
LINE
  8
Meterkurven
 10
-23.63971874
 20
-45.82154871
 11
-23.21468624
 21
-45.89978896
  0
LINE
  8
Meterkurven
 10
-23.21468624
 20
-45.89978896
 11
-22.79522244
 21
-45.99540463
  0
LINE
  8
Meterkurven
 10
-22.79522244
 20
-45.99540463
 11
-22.38231171
 21
-46.11106839
  0
LINE
  8
Meterkurven
 10
-22.38231171
 20
-46.11106839
 11
-22.12620198
 21
-46.19733493
  0
LINE
  8
Meterkurven
 10
-22.12620198
 20
-46.19733493
 11
-21.87159947
 21
-46.29632978
  0
LINE
  8
Meterkurven
 10
-21.87159947
 20
-46.29632978
 11
-21.61909237
 21
-46.40647033
  0
LINE
  8
Meterkurven
 10
-21.61909237
 20
-46.40647033
 11
-21.36926889
 21
-46.52617401
  0
LINE
  8
Meterkurven
 10
-21.36926889
 20
-46.52617401
 11
-21.12271723
 21
-46.6538582
  0
LINE
  8
Meterkurven
 10
-21.12271723
 20
-46.6538582
 11
-20.8800256
 21
-46.78794031
  0
LINE
  8
Meterkurven
 10
-20.8800256
 20
-46.78794031
 11
-20.6417822
 21
-46.92683774
  0
LINE
  8
Meterkurven
 10
-20.6417822
 20
-46.92683774
 11
-20.40857524
 21
-47.0689679
  0
LINE
  8
Meterkurven
 10
-22.67007032
 20
35.99154949
 11
-20.72457762
 21
35.80487701
  0
LINE
  8
Meterkurven
 10
3.482890808
 20
50.93398789
 11
3.950043441
 21
50.64718253
  0
LINE
  8
Meterkurven
 10
23.28913638
 20
37.47838892
 11
23.35024149
 21
37.43493119
  0
LINE
  8
Meterkurven
 10
-45.26582821
 20
23.08151154
 11
-44.03904646
 21
22.23955755
  0
LINE
  8
Meterkurven
 10
-59.14465872
 20
15.15187142
 11
-58.35491257
 21
14.47049713
  0
LINE
  8
Meterkurven
 10
-71.47766284
 20
8.105435889
 11
-71.47161211
 21
8.099975304
  0
LINE
  8
Meterkurven
 10
-82.18481018
 20
1.987930154
 11
-81.52209197
 21
1.647398379
  0
LINE
  8
Meterkurven
 10
-73.21298096
 20
-17.1422633
 11
-73.11883211
 21
-17.07799216
  0
LINE
  8
Meterkurven
 10
-59.48548604
 20
-36.98686855
 11
-59.25530514
 21
-36.86075973
  0
LINE
  8
Meterkurven
 10
-37.30237462
 20
-51.37055782
 11
-36.64505074
 21
-51.85987199
  0
LINE
  8
Strassen_Wege
 10
74.13254579
 20
34.26288824
 11
83.93576362
 21
47.83127521
  0
LINE
  8
Strassen_Wege
 10
86.32109825
 20
46.03827796
 11
76.38102009
 21
32.55166001
  0
LINE
  8
Strassen_Wege
 10
86.32109825
 20
46.03827796
 11
103.1409643
 21
68.95342297
  0
LINE
  8
Strassen_Wege
 10
90.71049288
 20
        85
 11
97.77313264
 21
77.94770536
  0
LINE
  8
Strassen_Wege
 10
97.77313264
 20
77.94770536
 11
105.1753886
 21
70.96397723
  0
LINE
  8
Strassen_Wege
 10
105.1753886
 20
70.96397723
 11
110.2811597
 21
66.60370879
  0
LINE
  8
Strassen_Wege
 10
110.2811597
 20
76.6581324
 11
101.8430016
 21
        85
  0
LINE
  8
Strassen_Wege
 10
86.90316912
 20
        85
 11
99.42630928
 21
72.41239822
  0
LINE
  8
Strassen_Wege
 10
99.42630928
 20
72.41239822
 11
103.410089
 21
68.70282215
  0
LINE
  8
Strassen_Wege
 10
103.410089
 20
68.70282215
 11
110.2811597
 21
62.64382969
  0
LINE
  8
Strassen_Wege
 10
-41.71476355
 20
-55.7237615
 11
-37.21214442
 21
-61.49499099
  0
LINE
  8
Strassen_Wege
 10
-37.21214442
 20
-61.49499099
 11
-32.23299721
 21
-67.33612998
  0
LINE
  8
Strassen_Wege
 10
-32.23299721
 20
-67.33612998
 11
-26.43948823
 21
-72.19828572
  0
LINE
  8
Strassen_Wege
 10
-26.43948823
 20
-72.19828572
 11
-23.38157747
 21
-73.98768956
  0
LINE
  8
Strassen_Wege
 10
-23.38157747
 20
-73.98768956
 11
-20.08663011
 21
-75.65629677
  0
LINE
  8
Strassen_Wege
 10
-109.7188403
 20
25.76560788
 11
-94.36792713
 21
9.852522213
  0
LINE
  8
Strassen_Wege
 10
-42.15844502
 20
-62.33891958
 11
-34.86690922
 21
-69.28792013
  0
LINE
  8
Strassen_Wege
 10
-34.86690922
 20
-69.28792013
 11
-28.96864197
 21
-72.64426855
  0
LINE
  8
Strassen_Wege
 10
-28.96864197
 20
-72.64426855
 11
-23.33535982
 21
-74.49254118
  0
LINE
  8
Strassen_Wege
 10
-23.33535982
 20
-74.49254118
 11
-20.08663011
 21
-75.65629677
  0
LINE
  8
Strassen_Wege
 10
-45.85483108
 20
       -85
 11
-53.23467775
 21
-68.3169136
  0
LINE
  8
Strassen_Wege
 10
-53.23467775
 20
-68.3169136
 11
-60.28639018
 21
-54.42080542
  0
LINE
  8
Strassen_Wege
 10
-60.28639018
 20
-54.42080542
 11
-68.08990121
 21
-41.361787
  0
LINE
  8
Strassen_Wege
 10
-68.08990121
 20
-41.361787
 11
-75.59335776
 21
-30.32373021
  0
LINE
  8
Strassen_Wege
 10
-75.59335776
 20
-30.32373021
 11
-86.08417226
 21
-16.36645624
  0
LINE
  8
Strassen_Wege
 10
-86.08417226
 20
-16.36645624
 11
-94.94890943
 21
-5.275079884
  0
LINE
  8
Strassen_Wege
 10
-94.94890943
 20
-5.275079884
 11
-106.1892139
 21
7.898056528
  0
LINE
  8
Strassen_Wege
 10
-106.1892139
 20
7.898056528
 11
-109.7188403
 21
10.78270632
  0
LINE
  8
Strassen_Wege
 10
-110.2811597
 20
6.56054527
 11
-107.709055
 21
4.474450214
  0
LINE
  8
Strassen_Wege
 10
-107.709055
 20
4.474450214
 11
-101.0171089
 21
-3.759973405
  0
LINE
  8
Strassen_Wege
 10
-101.0171089
 20
-3.759973405
 11
-93.63813609
 21
-12.75618871
  0
LINE
  8
Strassen_Wege
 10
-93.63813609
 20
-12.75618871
 11
-85.43206503
 21
-23.25550554
  0
LINE
  8
Strassen_Wege
 10
-85.43206503
 20
-23.25550554
 11
-76.41653914
 21
-35.39540275
  0
LINE
  8
Strassen_Wege
 10
-76.41653914
 20
-35.39540275
 11
-71.19798898
 21
-43.05143048
  0
LINE
  8
Strassen_Wege
 10
-71.19798898
 20
-43.05143048
 11
-65.23995423
 21
-53.32684046
  0
LINE
  8
Strassen_Wege
 10
-65.23995423
 20
-53.32684046
 11
-70.98648618
 21
-56.49683308
  0
LINE
  8
Strassen_Wege
 10
-70.98648618
 20
-56.49683308
 11
-73.28933621
 21
-55.88791453
  0
LINE
  8
Strassen_Wege
 10
-73.28933621
 20
-55.88791453
 11
-83.19286088
 21
-50.21621014
  0
LINE
  8
Strassen_Wege
 10
-70.79066626
 20
-64.47278351
 11
-67.06969859
 21
-63.10397037
  0
LINE
  8
Strassen_Wege
 10
-67.06969859
 20
-63.10397037
 11
-62.57479559
 21
-62.02320057
  0
LINE
  8
Strassen_Wege
 10
-62.57479559
 20
-62.02320057
 11
-60.37071542
 21
-61.71691997
  0
LINE
  8
Strassen_Wege
 10
-60.37071542
 20
-61.71691997
 11
-53.86694079
 21
-75.76323283
  0
LINE
  8
Strassen_Wege
 10
-53.86694079
 20
-75.76323283
 11
-49.68639444
 21
       -85
  0
LINE
  8
Strassen_Wege
 10
2.262992423
 20
-43.81226548
 11
28.35530627
 21
-36.9472117
  0
LINE
  8
Strassen_Wege
 10
48.3036273
 20
-11.22510683
 11
43.68606782
 21
-18.34812669
  0
LINE
  8
Strassen_Wege
 10
53.4075177
 20
-3.351875786
 11
51.22073824
 21
-6.725188808
  0
LINE
  8
Strassen_Wege
 10
39.66082749
 20
-23.93194014
 11
38.60770631
 21
-25.39282985
  0
LINE
  8
Strassen_Wege
 10
43.68606782
 20
-18.34812669
 11
41.74717168
 21
-21.03776344
  0
LINE
  8
Strassen_Wege
 10
2.262992423
 20
-43.81226548
 11
-7.245530504
 21
-46.38767504
  0
LINE
  8
Strassen_Wege
 10
-12.61181773
 20
-47.84114868
 11
-19.34415049
 21
-49.6646195
  0
LINE
  8
Strassen_Wege
 10
57.67322168
 20
4.416310865
 11
53.4075177
 21
-3.351875786
  0
LINE
  8
Strassen_Wege
 10
-23.49975941
 20
-50.79017759
 11
-30.88835883
 21
-52.79140004
  0
LINE
  8
Strassen_Wege
 10
-35.29625352
 20
-53.98529043
 11
-41.71476355
 21
-55.7237615
  0
CIRCLE
  8
Strassen_Wege
 10
60.10381126
 20
-72.12312903
 40
        10
  0
LINE
  8
Strassen_Wege
 10
50.10381126
 20
-72.12312903
 11
70.10381126
 21
-72.12312903
  0
LINE
  8
Strassen_Wege
 10
60.10381126
 20
-82.12312903
 11
60.10381126
 21
-62.12312903
  0
LINE
  8
Strassen_Wege
 10
59.80381126
 20
-72.12312903
 11
59.80381126
 21
-62.12312903
  0
LINE
  8
Strassen_Wege
 10
59.50381126
 20
-72.12312903
 11
59.50381126
 21
-62.12312903
  0
LINE
  8
Strassen_Wege
 10
60.45096084
 20
-72.12312903
 11
60.45096084
 21
-62.12763004
  0
LINE
  8
Strassen_Wege
 10
60.75096084
 20
-72.12312903
 11
60.75096084
 21
-62.12312903
  0
TEXT
  8
Strassen_Wege
 10
70.60057715
 20
-79.83493696
 40
         4
  1
1077.00
 50
2.8304036e-008
 41
0.6103888889
  0
LINE
  8
Geb_ude
 10
-0.2680631799
 20
        85
 11
36.24403542
 21
50.05104516
  0
LINE
  8
Geb_ude
 10
36.24403542
 20
50.05104516
 11
69.7844551
 21
        85
  0
LINE
  8
Geb_ude
 10
39.3429325
 20
        85
 11
55.20936959
 21
69.8128315
  0
LINE
  8
Geb_ude
 10
65.78066087
 20
80.82806581
 11
71.97316805
 21
74.73273259
  0
LINE
  8
Geb_ude
 10
71.97316805
 20
74.73273259
 11
66.05296504
 21
68.51570883
  0
LINE
  8
Geb_ude
 10
66.05296504
 20
68.51570883
 11
83.36254572
 21
52.05265027
  0
LINE
  8
Geb_ude
 10
65.17787401
 20
-33.55367111
 11
79.31211307
 21
-38.12628001
  0
LINE
  8
Geb_ude
 10
79.31211307
 20
-38.12628001
 11
78.50179132
 21
-40.53807446
  0
LINE
  8
Geb_ude
 10
78.50179132
 20
-40.53807446
 11
91.46115416
 21
-44.79356897
  0
LINE
  8
Geb_ude
 10
91.46115416
 20
-44.79356897
 11
90.61403498
 21
-47.31488514
  0
LINE
  8
Geb_ude
 10
90.61403498
 20
-47.31488514
 11
103.8065552
 21
-51.46659534
  0
LINE
  8
Geb_ude
 10
103.8065552
 20
-51.46659534
 11
102.9048459
 21
-54.15039023
  0
LINE
  8
Geb_ude
 10
102.9048459
 20
-54.15039023
 11
110.2811597
 21
-56.35788859
  0
LINE
  8
Geb_ude
 10
110.2811597
 20
-75.40652925
 11
108.4588382
 21
-81.04104412
  0
LINE
  8
Geb_ude
 10
108.4588382
 20
-81.04104412
 11
95.2999435
 21
-76.78517885
  0
LINE
  8
Geb_ude
 10
95.2999435
 20
-76.78517885
 11
96.02774115
 21
-74.61900431
  0
LINE
  8
Geb_ude
 10
96.02774115
 20
-74.61900431
 11
82.84374257
 21
-70.44193087
  0
LINE
  8
Geb_ude
 10
82.84374257
 20
-70.44193087
 11
83.72717899
 21
-67.81252216
  0
LINE
  8
Geb_ude
 10
83.72717899
 20
-67.81252216
 11
70.81682428
 21
-63.41116272
  0
LINE
  8
Geb_ude
 10
70.81682428
 20
-63.41116272
 11
71.81968327
 21
-60.42631165
  0
LINE
  8
Geb_ude
 10
71.81968327
 20
-60.42631165
 11
57.59566534
 21
-55.56013964
  0
LINE
  8
Geb_ude
 10
57.59566534
 20
-55.56013964
 11
65.17787401
 21
-33.55367111
  0
LINE
  8
Geb_ude
 10
78.50179132
 20
-40.53807446
 11
71.81968327
 21
-60.42631165
  0
LINE
  8
Geb_ude
 10
90.61403498
 20
-47.31488514
 11
83.72717899
 21
-67.81252216
  0
LINE
  8
Geb_ude
 10
102.9048459
 20
-54.15039023
 11
96.02774115
 21
-74.61900431
  0
LINE
  8
Geb_ude
 10
-2.816815361
 20
-69.49278751
 11
9.413821978
 21
-49.95514533
  0
LINE
  8
Geb_ude
 10
9.413821978
 20
-49.95514533
 11
20.79316018
 21
-57.09359781
  0
LINE
  8
Geb_ude
 10
20.79316018
 20
-57.09359781
 11
22.99034351
 21
-53.6044054
  0
LINE
  8
Geb_ude
 10
22.99034351
 20
-53.6044054
 11
46.90087473
 21
-69.08455534
  0
LINE
  8
Geb_ude
 10
46.90087473
 20
-69.08455534
 11
36.73389329
 21
       -85
  0
LINE
  8
Geb_ude
 10
28.94075752
 20
       -85
 11
10.59862593
 21
-73.28282115
  0
LINE
  8
Geb_ude
 10
10.59862593
 20
-73.28282115
 11
8.429527125
 21
-76.72741451
  0
LINE
  8
Geb_ude
 10
8.429527125
 20
-76.72741451
 11
-2.816815361
 21
-69.49278751
  0
LINE
  8
Geb_ude
 10
10.59862593
 20
-73.28282115
 11
20.79316018
 21
-57.09359781
  0
LINE
  8
Geb_ude
 10
-81.82121226
 20
       -85
 11
-87.95977395
 21
-75.02683965
  0
LINE
  8
Geb_ude
 10
-87.95977395
 20
-75.02683965
 11
-70.79066626
 21
-64.47278351
  0
LINE
  8
Geb_ude
 10
-70.79066626
 20
-64.47278351
 11
-58.15599677
 21
       -85
  0
LINE
  8
Geb_ude
 10
-109.7188403
 20
-52.34928407
 11
-109.2971932
 21
-53.05203315
  0
LINE
  8
Geb_ude
 10
-109.2971932
 20
-53.05203315
 11
-87.22582526
 21
-39.57208793
  0
LINE
  8
Geb_ude
 10
-87.22582526
 20
-39.57208793
 11
-108.2136297
 21
-5.490935028
  0
LINE
  8
Geb_ude
 10
-108.2136297
 20
-5.490935028
 11
-109.7188403
 21
-6.41709469
  0
LINE
  8
Geb_ude
 10
-6.029707462
 20
72.99623306
 11
2.721287088
 21
82.1386288
  0
LINE
  8
Meterkurven
 10
65.17787401
 20
-33.55367111
 11
79.31211307
 21
-38.12628001
  0
LINE
  8
Meterkurven
 10
79.31211307
 20
-38.12628001
 11
78.50179132
 21
-40.53807446
  0
LINE
  8
Meterkurven
 10
78.50179132
 20
-40.53807446
 11
91.46115416
 21
-44.79356897
  0
LINE
  8
Meterkurven
 10
91.46115416
 20
-44.79356897
 11
90.61403498
 21
-47.31488514
  0
LINE
  8
Meterkurven
 10
90.61403498
 20
-47.31488514
 11
103.8065552
 21
-51.46659534
  0
LINE
  8
Meterkurven
 10
103.8065552
 20
-51.46659534
 11
102.9048459
 21
-54.15039023
  0
LINE
  8
Meterkurven
 10
102.9048459
 20
-54.15039023
 11
110.2811597
 21
-56.35788859
  0
LINE
  8
Meterkurven
 10
-70.79066626
 20
-64.47278351
 11
-58.15599677
 21
       -85
  0
LINE
  8
Meterkurven
 10
48.08464846
 20
62.38890659
 11
69.7844551
 21
        85
  0
LINE
  8
Perimeter
 10
-23.4153311
 20
32.18811437
 11
-84.54480183
 21
-2.605568587
  0
LINE
  8
Strassen_Wege
 10
-94.36792713
 20
9.852522213
 11
-84.54480183
 21
-2.605568587
  0
LINE
  8
Strassen_Wege
 10
-84.54480183
 20
-2.605568587
 11
-73.95050014
 21
-16.14209128
  0
LINE
  8
Strassen_Wege
 10
-73.95050014
 20
-16.14209128
 11
-69.81513389
 21
-21.49441884
  0
LINE
  8
Strassen_Wege
 10
-69.81513389
 20
-21.49441884
 11
-46.0560722
 21
-56.90273148
  0
LINE
  8
Meterkurven
 10
25.36541486
 20
-34.89155065
 11
-47.4550175
 21
-54.81787252
  0
LINE
  8
Strassen_Wege
 10
-46.0560722
 20
-56.90273148
 11
-42.15844502
 21
-62.33891958
  0
LINE
  8
Perimeter
 10
-84.54480183
 20
-2.605568587
 11
-73.95050014
 21
-16.14209128
  0
LINE
  8
Perimeter
 10
-73.95050014
 20
-16.14209128
 11
-69.81513389
 21
-21.49441884
  0
LINE
  8
Perimeter
 10
-69.81513389
 20
-21.49441884
 11
-47.4550175
 21
-54.81787252
  0
LINE
  8
Perimeter
 10
-47.4550175
 20
-54.81787252
 11
25.36541486
 21
-34.89155065
  0
LINE
  8
Perimeter
 10
54.60421199
 20
7.474372969
 11
19.44592484
 21
41.18751408
  0
LINE
  8
Perimeter
 10
54.60421199
 20
7.474372969
 11
25.36541486
 21
-34.89155065
  0
LINE
  8
Meterkurven
 10
-17.78197353
 20
77.28738281
 11
19.44592484
 21
41.18751408
  0
LINE
  8
Meterkurven
 10
19.44592484
 20
41.18751408
 11
54.60421199
 21
7.474372969
  0
LINE
  8
Meterkurven
 10
33.14839059
 20
-33.50034561
 11
37.75611058
 21
-36.00344986
  0
LINE
  8
Strassen_Wege
 10
38.60770631
 20
-25.39282985
 11
32.32467425
 21
-33.05286879
  0
LINE
  8
Geb_ude
 10
-14.39295651
 20
        85
 11
-16.41926565
 21
82.86865152
  0
LINE
  8
Geb_ude
 10
-6.029707462
 20
72.99623306
 11
-16.41926565
 21
82.86865152
  0
LINE
  8
Geb_ude
  6
LTYPE_1
 10
-7.106932103
 20
        85
 11
36.65820404
 21
43.2055115
  0
LINE
  8
Geb_ude
  6
LTYPE_1
 10
36.65820404
 20
43.2055115
 11
58.71344261
 21
66.45877369
  0
LINE
  8
Geb_ude
  6
LTYPE_1
 10
58.71344261
 20
66.45877369
 11
55.20936959
 21
69.8128315
  0
LINE
  8
Geb_ude
 10
30.99801354
 20
-32.33217177
 11
26.57900999
 21
-40.0492118
  0
LINE
  8
Geb_ude
 10
26.57900999
 20
-40.0492118
 11
33.14839059
 21
-42.28503423
  0
LINE
  8
Geb_ude
 10
33.14839059
 20
-42.28503423
 11
37.75611058
 21
-36.00344986
  0
LINE
  8
Geb_ude
 10
37.75611058
 20
-36.00344986
 11
30.99801354
 21
-32.33217177
  0
LINE
  8
Meterkurven
 10
46.09905144
 20
-3.277670762
 11
46.83965157
 21
-3.776184715
  0
LINE
  8
Meterkurven
 10
10.49570505
 20
-38.60654224
 11
10.9558083
 21
-38.8345437
  0
LINE
  8
Meterkurven
 10
-8.039897657
 20
-43.74222243
 11
-7.842013784
 21
-43.97831229
  0
LINE
  8
Meterkurven
 10
-20.40857524
 20
-47.0689679
 11
-20.02420401
 21
-47.31180312
  0
LINE
  8
Meterkurven
 10
37.00167458
 20
-17.83483509
 11
36.8186008
 21
-17.45181368
  0
LINE
  8
Meterkurven
 10
37.00167458
 20
-17.83483509
 11
41.74717168
 21
-21.03776344
  0
ENDSEC
  0
EOF
